Song name
# A B C D E F G H I J K L M N O P Q R S T U V W X Y Z

Misc Unsigned Bands - Sing Praises To Jehovah - Number 15 Life Without End At Last tab

-----------------------------------------------------------------------------
	  Sing Praises To Jehovah - Number 15 Life Without End At Last
-----------------------------------------------------------------------------
Tabbed by: nrrjw
Email: noeromerojw@gmail.com

Tuning: Standard

Hope you enjoy it, my brothers!

 Verses:
e|----------------------------------------------|
B|-5--6-8----5-6-8--6----5--8--5----5-----------|
G|--------------------------------7---5--5------|
D|----------------------------------------------|
A|----------------------------------------------|
E|----------------------------------------------|

e|----------------------------------------------|
B|----5--8--10---12-----------5---5-------------|
G|--5---------------12--12------7---5---7--5----|
D|----------------------------------------------|
A|----------------------------------------------|
E|----------------------------------------------|
 
 Chorus
e|----------------------------------------------|
B|-13--13--12-10--------13--13--12--10----------|
G|---------------12--9------------------12-12---|
D|----------------------------------------------|
A|----------------------------------------------|
E|----------------------------------------------|

e|----------------------------------------------|
B|----5--8--10---12-----------5---5-------------|
G|--5---------------12--12------7---5---7--5----|
D|----------------------------------------------|
A|----------------------------------------------|
E|----------------------------------------------|

| /  slide up
| \  slide down
| h  hammer-on
| p  pull-off
| ~  vibrato
| +  harmonic
| x  Mute note
=============================================================================
Tap to rate this tab
 
# A B C D E F G H I J K L M N O P Q R S T U V W X Y Z