Song name
# A B C D E F G H I J K L M N O P Q R S T U V W X Y Z

Misc Unsigned Bands - Lust For Trust - President tab

Tuning: Drop C (C G C F A D)

verse 1 (palm muted)
|----------|---------|---------|-----------|
|----------|---------|---------|-----------|
|----------|---------|---------|-----------|
|----------|---------|---------|-----------|
|----------|---------|---------|-----------|
|12-0-0-10-|0-0-12-0-|0-10-0-0-|12-0-13-12-|


verse 2 (palm muted then open)
|----------|--------|--------|--------|
|----------|--------|--------|--------|
|----------|--------|--------|--------|
|----------|--------|--------|--------|
|----------|--------|--------|--------|
|12-10-0-3-|5-0-3-5-|0-3-5-0-|3-5-0---|


bridge
|----------|---------|----------|---------|
|----------|---------|----------|---------|
|--------5-|---------|5---------|---------|
|0-------5-|----0----|5-------0-|----1----|  x 3
|0-------3-|----0----|3-------0-|----1----|
|0---------|----0----|--------0-|----1----|

|---------|---------|---------|--------|
|---------|---------|---------|--------|
|-------5-|---------|---------|--------|
|0------5-|----0----|1------0-|---1----|
|0------3-|----0----|1------0-|---1----|
|0--------|----0----|1------0-|---1----|


chorus
|---------|--------|--------|--------|
|---------|--------|--------|--------|
|---------|--------|--------|--------|
|0--------|--------|--------|0---0---|
|0--------|--------|--------|0---0---|
|0--------|--------|--------|0---0---|

|---------|--------|--------|--------|
|---------|--------|--------|--------|
|---------|--------|--------|--------|
|3--------|--------|--------|3---5---|
|3--------|--------|--------|3---5---|
|3--------|--------|--------|3---5---|

|---------|--------|--------|--------|
|---------|--------|--------|--------|
|---------|--------|--------|--------|
|0--------|--------|--------|0---0---|
|0--------|--------|--------|0---0---|
|0--------|--------|--------|0---0---|

|---------|--------|--------|--------|
|---------|--------|--------|--------|
|2--------|--------|--------|--------|
|2--------|---3----|--------|3---5---|
|0--------|---3----|--------|3---5---|
|---------|---3----|--------|3---5---|
Tap to rate this tab
 
# A B C D E F G H I J K L M N O P Q R S T U V W X Y Z