Song name
# A B C D E F G H I J K L M N O P Q R S T U V W X Y Z

Misc Unsigned Bands - Denleavy - Pokerface tab

                    www.youtube.com/Denleavy for the video/ song



Lead

             E  E  E  E  E  E  E  E     E  E  E  E  E  E  E  E   
E||-------|--------------------------|--------------------------|
B||-------|--------------------------|--------------------------|
G||-------|--------------------------|--------------------------|
D||-------|--6--6--------------------|--6--6--------4--4--------|
A||-------|--------------6--6--------|--------7-----------------|
E||-------|--------4--4--------4--4--|-----------7--------2--2--|


  E  E  E  E  E  E  E  E     E  E  E  E  E  E  E  E   
--------------------------|--------------------------|
--------------------------|--------------------------|
--------------------------|--------------------------|
--6--6--------------------|--6--6--------4--4--------|
--------------6--6--------|--------7-----------------|
--------4--4--------4--4--|-----------7--------2--2--|


  E  E  E  E  E  E  E  E     E  E  E  E  E  E  E  E   
--------------------------|--------------------------|
--------------------------|--------------------------|
--------------------------|--------------------------|
--6--6--------------------|--6--6--------4--4--------|
--------------6--6--------|--------7-----------------|
--------4--4--------4--4--|-----------7--------2--2--|


  E  E  E  E  E  E  E  E     E  E  E  E  E  E  E  E   
--------------------------|--------------------------|
--------------------------|--------------------------|
--------------------------|--------------------------|
--6--6--------------------|--6--6--------4--4--------|
--------------6--6--------|--------7-----------------|
--------4--4--------4--4--|-----------7--------2--2--|


  E  E  E  E  E  E  E  E     E  E  E  E  E  E  E  E   
--------------------------|--------------------------|
--------------------------|--------------------------|
--------------------------|--------------------------|
--6--6--------------------|--6--6--------4--4--------|
--------------6--6--------|--------7-----------------|
--------4--4--------4--4--|-----------7--------2--2--|


  E  E  E  E  E  E  E  E     E  E  E  E  E  E  E  E   
--------------------------|--------------------------|
--------------------------|--------------------------|
--------------------------|--------------------------|
--6--6--------------------|--6--6--------4--4--------|
--------------6--6--------|--------7-----------------|
--------4--4--------4--4--|-----------7--------2--2--|


  E   E  E  E  E  E  E  E     E   E  E  E  H         
---------------------------|------------------------|
---------------------------|------------------------|
---------------------------|------------------------|
--8h--9--9--9--9--9--9--9--|--8h--9--9--9--9--------|
---------------------------|------------------------|
---------------------------|------------------------|


  E   E  E  E  E  E  E  E     E   E  E  E  H           E  E  E  E  E  E  E  E   
---------------------------|------------------------|--------------------------|
---------------------------|------------------------|--9-----------------------|
---------------------------|------------------------|-----8--7--8--9--8--7--8--|
--8h--9--9--9--9--9--9--9--|--8h--9--9--9--9--------|--------------------------|
---------------------------|------------------------|--------------------------|
---------------------------|------------------------|--------------------------|


  E  E   E  E  H           E   E  E  E  E  E  E  E     E   E  E  E  H         
------------------------|---------------------------|------------------------|
------------------------|---------------------------|------------------------|
--9--8------------------|---------------------------|------------------------|
--------11--9--8--------|--8h--9--9--9--9--9--9--9--|--8h--9--9--9--9--------|
------------------------|---------------------------|------------------------|
------------------------|---------------------------|------------------------|


                                                  E  E  E  E  E  E  E  E   
-----|-----|-----|-----|-----|-----|-----|-----|--------------------------|
-----|-----|-----|-----|-----|-----|-----|-----|--------------------------|
-----|-----|-----|-----|-----|-----|-----|-----|-----4--3--------4--3-----|
-----|-----|-----|-----|-----|-----|-----|-----|-----------4-----------4--|
-----|-----|-----|-----|-----|-----|-----|-----|--------------------------|
-----|-----|-----|-----|-----|-----|-----|-----|--------------------------|


  E  E   E   E  E   E   Q       Q    E   E  H         
-----------------------------|-----------------------|
-----------------------------|-----------------------|
-----------------------------|-----------------------|
-----4s--2s--1--1s--2s--1----|--1----1s--4--4--------|
-----------------------------|-----------------------|
-----------------------------|-----------------------|


  E  E  E  E  E  E  E  E     E  E  E  E  E  E  E  E   
--------------------------|--------------------------|
--------------------------|--------------------------|
--------------------------|-----4--3--------4--3-----|
--------------------------|-----------4-----------4--|
--2--2--1-----2--2--1-----|--------------------------|
-----------2-----------2--|--------------------------|


  E  E   E   E  E   E   Q       Q    E   E  H         
-----------------------------|-----------------------|
-----------------------------|-----------------------|
-----------------------------|-----------------------|
-----4s--2s--1--1s--2s--1----|--1----1s--4--4--------|
-----------------------------|-----------------------|
-----------------------------|-----------------------|


  E  E  E  E  E  E  E  E     E   E  E  E  E  E  E  E     E   E  E  E  H         
--------------------------|---------------------------|------------------------|
--------------------------|---------------------------|------------------------|
--------------------------|---------------------------|------------------------|
--------------------------|--8h--9--9--9--9--9--9--9--|--8h--9--9--9--9--------|
--2--2--1-----2--2--1-----|---------------------------|------------------------|
-----------2-----------2--|---------------------------|------------------------|


  E   E  E  E  E  E  E  E     E   E  E  E  H           E  E  E  E  E  E  E  E   
---------------------------|------------------------|--------------------------|
---------------------------|------------------------|--9-----------------------|
---------------------------|------------------------|-----8--7--8--9--8--7--8--|
--8h--9--9--9--9--9--9--9--|--8h--9--9--9--9--------|--------------------------|
---------------------------|------------------------|--------------------------|
---------------------------|------------------------|--------------------------|


  E  E   E  E  H           E   E  E  E  E  E  E  E     E   E  E  E  H         
------------------------|---------------------------|------------------------|
------------------------|---------------------------|------------------------|
--9--8------------------|---------------------------|------------------------|
--------11--9--8--------|--8h--9--9--9--9--9--9--9--|--8h--9--9--9--9--------|
------------------------|---------------------------|------------------------|
------------------------|---------------------------|------------------------|


-----|-----|-----|-----|-----|-----|-----|-----|-----|-----|-----|-----|
-----|-----|-----|-----|-----|-----|-----|-----|-----|-----|-----|-----|
-----|-----|-----|-----|-----|-----|-----|-----|-----|-----|-----|-----|
-----|-----|-----|-----|-----|-----|-----|-----|-----|-----|-----|-----|
-----|-----|-----|-----|-----|-----|-----|-----|-----|-----|-----|-----|
-----|-----|-----|-----|-----|-----|-----|-----|-----|-----|-----|-----|


  E  E  E  E  E  E  E  E     E  E   E   E  E   E   Q     
--------------------------|-----------------------------|
--------------------------|-----------------------------|
-----4--3--------4--3-----|-----------------------------|
-----------4-----------4--|-----4s--2s--1--1s--2s--1----|
--------------------------|-----------------------------|
--------------------------|-----------------------------|


  Q    E   E  H           E  E  E  E  E  E  E  E     E  E  E  E  E  E  E  E   
-----------------------|--------------------------|--------------------------|
-----------------------|--------------------------|--------------------------|
-----------------------|--------------------------|-----4--3--------4--3-----|
--1----1s--4--4--------|--------------------------|-----------4-----------4--|
-----------------------|--2--2--1-----2--2--1-----|--------------------------|
-----------------------|-----------2-----------2--|--------------------------|


  E  E   E   E  E   E   Q       Q    E   E  H         
-----------------------------|-----------------------|
-----------------------------|-----------------------|
-----------------------------|-----------------------|
-----4s--2s--1--1s--2s--1----|--1----1s--4--4--------|
-----------------------------|-----------------------|
-----------------------------|-----------------------|


  E  E  E  E  E  E  E  E     H.           E  E     W                 
--------------------------|---------------------|-------------------|
--------------------------|---------------------|-------------------|
--------------------------|---------------------|-------------------|
--------------------------|--6---------------4--|--6----------------|
--2--2--1-----2--2--1-----|--6---------------4--|--6----------------|
-----------2-----------2--|--4---------------2--|--4----------------|


  H.           E  E     H.           E  E     W                 
---------------------|---------------------|-------------------|
---------------------|---------------------|-------------------|
---------------------|---------------------|-------------------|
--L---------------4--|--6---------------4--|--6----------------|
--L---------------4--|--6---------------4--|--6----------------|
--L---------------2--|--4---------------2--|--4----------------|


                        Guitar Solo                    
  H.           E  E     Q           E  E  E  E  E  E   
---------------------|--------------------------------|
---------------------|--------------------------------|
---------------------|--------------------------------|
--L---------------4--|--------------------------------|
--L---------------4--|--6--------------6--6--6--4--6--|
--L---------------2--|--------------------------------|


  Q    E  E  E  E   E  E     Q    E  E  E  E  E  E     H        Q     Q      
--------------------------|-------------------------|-----------------------|
--------------------------|-------------------------|-----------------------|
--------------------------|-------------------------|-----------------------|
--------------------------|-------------------------|-----------------------|
--7-------7--7--7s--9--7--|--6-------6--6--6--7--6--|--4--------2~----1~----|
--------------------------|-------------------------|-----------------------|


  S  S S S S  S S S E   Q.        Q.      E  Q.        S S  
-------------------------------|----------7----------------|
-------------------------------|--7b---------7pbr------4-5-|
-----------4h-6-x-x-6b--4------|---------------------------|
--4h-6-x-x---------------------|---------------------------|
-------------------------------|---------------------------|
-------------------------------|---------------------------|


  E  E  E  E  E  E  E  E     E  Q      E  H         
--------------------------|------------------------|
--7--5--4-----4-----------|------------------------|
-----------6-----6--4--3--|-----6br----4-----------|
--------------------------|---------------6--------|
--------------------------|------------------------|
--------------------------|------------------------|


   S  S  S  S  S  S  S  S  S  S  S  S  S  S  E      Q.       E   Q.         E   
--------------------------------------------11--|-----------14-----------------|
--------11-------11-12----11-12-14-11-12-14-----|--14b----------14pbr-------L--|
--12-13----12-13-------13-----------------------|------------------------------|
------------------------------------------------|------------------------------|
------------------------------------------------|------------------------------|
------------------------------------------------|------------------------------|


   Q      S  S  S  S  S  S  S  S  S  S  S  S     Q.        E   H         
---------16----------------------------------|--------------------------|
--19b-------19-16----16----16----------------|--------------------------|
------------------19----18----16-18----16----|--18br------16------------|
------------------------------------18----16-|----------------18--------|
---------------------------------------------|--------------------------|
---------------------------------------------|--------------------------|


   E   Q     E   Q     E   E        Q     E   E   H         
------19--------21--------21br--|---L----19--21--19--------|
--------------------------------|--------------------------|
--16--------16--------16--------|--------------------------|
--------------------------------|--------------------------|
--------------------------------|--------------------------|
--------------------------------|--------------------------|


   S  S  S  S  S  S  S  S  S  S  S  S  S  S  S  S     Q.        E   H         
--------------------------------------------------|--------------------------|
--------------------------------------------------|--------------------------|
--------------------------------------------16-18-|--18br------16------------|
--------------------------16----16-18-16-18-------|----------------18--------|
--------16----16-18-16-18----18-------------------|--------------------------|
--16-19----19-------------------------------------|--------------------------|


   S  H.            S. S.    H.            Q          W                  
-------------------------|------------------------|---------------------|
-------------------------|------------------------|---------------------|
-------------------16-18-|--16------------15br----|--15b----------------|
--16-18------------------|------------------------|---------------------|
-------------------------|------------------------|---------------------|
-------------------------|------------------------|---------------------|


                             PM PM PM    PM PM PM       PM PM PM PM PM PM    
   W                      E  E  E  E  E  E  E  E     E  E  E  E  E  E  Q     
-----------------------|--------------------------|-------------------------|
-----------------------|--------------------------|-------------------------|
--15pbr----------------|-----4--3--------4--3-----|-------------------------|
-----------------------|-----------4-----------4--|-----4--2--1--2--1--1----|
-----------------------|--------------------------|-------------------------|
-----------------------|--------------------------|-------------------------|


  PM   PM PM             PM PM PM PM PM PM PM PM  
  Q    E  H        E     E  E  E  E  E  E  E  E   
----------------------|--------------------------|
----------------------|--------------------------|
----------------------|--------------------------|
--1----4--4--------L--|--------------------------|
----------------------|--2--2--1-----2--2--1-----|
----------------------|-----------2-----------2--|


    Improv. Guitar Solo                                             
    Q                   E  E  Q    E   E     Q    E  E  Q    E  E   
|-----------------------------------------|------------------------|
|-----------------------------------------|------------------------|
|*----------------------------------------|------------------------|
|*--6----------------------6--6----6s--4--|--2-------2--2----2--2--|
|---6----------------------6--6----6s--4--|--2-------2--2----2--2--|
|---4----------------------4--4----4s--2--|--0-------0--0----0--0--|


  Q    E  E  Q    Q       E  E  E  E  Q    Q       Q    E  E  Q    E   E   
-----------------------|------------------------|-------------------------|
-----------------------|------------------------|-------------------------|
--4-------4--4----4----|--4--4--4--4--4----4----|-------------------------|
--4-------4--4----4----|--4--4--4--4--4----4----|--6-------6--6----6s--4--|
--2-------2--2----2----|--1--1--1--1--2----1----|--6-------6--6----6s--4--|
-----------------------|------------------------|--4-------4--4----4s--2--|


  Q    E  E  Q    E  E     Q    E  E  Q    Q       E  E  E  E  Q    Q     4x
------------------------|-----------------------|-------------------------||
------------------------|-----------------------|-------------------------||
------------------------|--4-------4--4----4----|--4--4--4--4--4----4----*||
--2-------2--2----2--2--|--4-------4--4----4----|--4--4--4--4--4----4----*||
--2-------2--2----2--2--|--2-------2--2----2----|--1--1--1--1--2----1-----||
--0-------0--0----0--0--|-----------------------|-------------------------||




Duration Legend
---------------
W - whole
H - half
Q - quarter
E - 8th
S - 16th
T - 32nd
X - 64th
. - note dotted
|-n-|  - n-tuplets


Tablature Legend
----------------
L - tied note
x - dead note
g - grace note
(n) - ghost note
> - accentuded note
NH - natural harmonic
AH - artificial harmonic
TH - tapped harmonic
SH - semi harmonic
PH - pitch harmonic
h - hammer on
p - pull off
b - bend
br - bendRelease
pb - preBend
pbr - preBendRelease
brb - bendReleaseBend
\n/ - tremolo bar dip
\n - tremolo bar dive
-/n - tremolo bar Release up
/n\ - tremolo bar inverted dip
/n - tremolo bar return
-\n - tremolo bar Release down
S - shift slide
s - legato slide
/ -  slide into from below or out of upwards
\ -  slide into from above or out of downwards
~ - vibrato
W - wide vibrato
tr - trill
TP - tremolo picking
T - tapping
S - slap
P - pop
< - fade in
^ - brush up
v - brush down
Tap to rate this tab
 
# A B C D E F G H I J K L M N O P Q R S T U V W X Y Z