Song name
# A B C D E F G H I J K L M N O P Q R S T U V W X Y Z

Misc Unsigned Bands - Bring Forth The Dead - Dismemberment tab

Artist: Bring Forth The Dead
Song:Dismemberment
Tuning: Drop C(C,F,Bb,Eb,G,C)


Intro(palm mute)
|--------------------------------------------------------|
|--------------------------------------------------------|
|--------------------------------------------------------|
|--------------------------------------------------------|
|--2-2-2-2-2-2-2-2----2-22-22--2-2-2-2-2-2-2-2----2-22-22|
|--0-0-0-0-0-0-0-0----0-00-00--0-0-0-0-0-0-0-0----0-00-00|

Verse(both guitars)                        Guitar 2(end of first verse)
|------------------------------------|X8   |---------------------------|
|------------------------------------|(PM) |---------------------------|
|------------------------------------|     |---------------------------|
|------------------------------------|     |---------------------------|
|--2--2--2--2--2--2--2--2----2--22-22|     |--2(Hold)------------------| 
|--0--0--0--0--0--0--0--0----0--00-00|     |--0(Hold)------------------|

Guitar 1(fast part)
|---------------------------------------|X8
|---------------------------------------|
|---------------------------------------|
|---------------------------------------|
|---------------------------------------|
|----0000888877775550000666655553333----|

Guitar 2(during fast part,come in after riff plays twice)
|-------------------------------------------|X6
|-------------------------------------------|(PM)
|-------------------------------------------|
|-------------------------------------------|
|----2--2---2-2--2--2--2--2-----2--22-22----|
|----0--0--0--0--0--0--0--0-----0--00-00----|

Guitar 1(after fast part)
|------------------------------------|X8
|------------------------------------|
|------------------------------------|
|---------10--9-----------8--7-------|
|---------10--9-----------8--7-------|
|----0--0--8--7--5b-0--0--6--5--3b---|

Guitar 2(after fast part)
|------------------------------------|X8
|------------------------------------|
|------------------------------------|
|---------10--9--7--------8--7--5----|
|---------10--9--7--------8--7--5----|
|----0--0--8--7--5--0--0--6--5--3----|

Verse(both guitars)
|-------------------------------------------|X4
|-------------------------------------------|(PM)
|-------------------------------------------|
|-------------------------------------------|
|----2--2---2-2--2--2--2--2-----2--22-22----|
|----0--0--0--0--0--0--0--0-----0--00-00----|

Guitar 1(back to fast part)
|---------------------------------------|X4
|---------------------------------------|
|---------------------------------------|
|---------------------------------------|
|---------------------------------------|
|----0000888877775550000666655553333----|

Guitar 2(continue verse rhythm)
|-------------------------------------------|X4
|-------------------------------------------|(PM)
|-------------------------------------------|
|-------------------------------------------|
|----2--2---2-2--2--2--2--2-----2--22-22----|
|----0--0--0--0--0--0--0--0-----0--00-00----|

Guitar 1
|------------------------------------|X8
|------------------------------------|
|------------------------------------|
|---------10--9-----------8--7-------|
|---------10--9-----------8--7-------|
|----0--0--8--7--5b-0--0--6--5--3b---|

Guitar 2
|------------------------------------|X8
|------------------------------------|
|------------------------------------|
|---------10--9--7--------8--7--5----|
|---------10--9--7--------8--7--5----|
|----0--0--8--7--5--0--0--6--5--3----|

Verse(last time)
|-------------------------------------------|X4
|-------------------------------------------|(PM)
|-------------------------------------------|
|-------------------------------------------|
|----2--2---2-2--2--2--2--2-----2--22-22----|
|----0--0--0--0--0--0--0--0-----0--00-00----|

Outro Verse(play entire outro twice)
|---------------------|X8
|---------------------|
|---------------------|
|----2--2--5--4--3----|
|----2--2--5--4--3----|
|----0--0--3--2--1----|

Guitar 1
|------------------------------------------------|
|------------------------------------------------|
|------------------------------------------------|
|--2--2------2--2----------2--2------2--2--------|
|--2--2------2--2----------2--2------2--2--------|
|--0--0------0--0----------0--0------0--0----3b--|

Guitar 2
|------------------------------------------------|
|------------------------------------------------|
|------------------------------------------------|
|--2--2------2--2----------2--2------2--2--------|
|--2--2------2--2----------2--2------2--2--------|
|--0--0------0--0----------0--0------0--0--------|

Guitar 1
|--------------------------------------------------|
|--------------------------------------------------|
|--------------------------------------------16db--|
|--2--2------2--2----------2--2------2--2----------|
|--2--2------2--2----------2--2------2--2----------|
|--0--0------0--0----------0--0------0--0----------|

Guitar 2
|------------------------------------------------|
|------------------------------------------------|
|------------------------------------------------|
|--2--2------2--2----------2--2------2--2--------|
|--2--2------2--2----------2--2------2--2--------|
|--0--0------0--0----------0--0------0--0--------|

After played twice, then:
|------------------------------------------------|
|------------------------------------------------|
|------------------------------------------------|
|--2--2------2--2----------2--2------2--2--------|
|--2--2------2--2----------2--2------2--2--------|
|--0--0------0--0----------0--0------0--0--------|

|--------------------------------------------|
|--------------------------------------------|
|--------------------------------------------|
|--2--2------2--2----------2--2--2--2--------|
|--2--2------2--2----------2--2--2--2--------|
|--0--0------0--0----------0--0--0--0--------|

Tap to rate this tab
 
# A B C D E F G H I J K L M N O P Q R S T U V W X Y Z