Song name
# A B C D E F G H I J K L M N O P Q R S T U V W X Y Z

Misc Unsigned Bands - He Is We - Happily Ever After tab

Everyone asks for a tab of this so here is a good enough version. Feel free to comment
(i'm iffy on the bridge cause it's hard to hear, but it looks like this is what he's
in videos). Played Drop D in the album version capo on 2 but live it looks like they 
it without so it doesn't have to be sung as high.


Verse
e|----0--0--0--0------------|
B|----0--0--0--0------------|
G|----0--4--4--4------------|
D|----2--4--2--2------------|
A|----4--2--0--2------------|
D|-------------2------------|


Pre Chorus
e|------0--0--0--------|
B|------0--0--2--------|
G|------4--6--2--------|
D|------4--6--0--------|
A|------2--4--0--------|
D|------------0--------|


Chorus
e|---0--0--0--0--------|
B|---0--2--0--0--------|
G|---6--2--1--4--------|
D|---6--0--2--4--------|
A|---4--0--2--2--------|
D|------0--0-----------|

Bridge

e|----0--0--0-----------------------|
B|----0--0--0-----------------------|
G|----9--9--9-----------------------|
D|----9--9--9-----------------------|
A|----7--x--x-----------------------|
E|-------9--7-----------------------|

That's about it, pretty easy stuff.
Tap to rate this tab
# A B C D E F G H I J K L M N O P Q R S T U V W X Y Z