Song name
# A B C D E F G H I J K L M N O P Q R S T U V W X Y Z

Misc Unsigned Bands - Sam Lloyd - Hey Ya tab

Hey, i was watching Scrubs, Episode 15 of season 8 [My soul on fire, part 2] where the 
gets married, and Ted buckland plays this song after the 'I Do's'.
I was tempted to write him as the artist. Its a brilliant piece of filmography, and 
is a great show.

Anyway, on with the tab.

Its my first one, just a really easy one. Standard tuning. Its not challenging at all, 
it sounds real nice, and the co-ordination to sing it as well isn't too hard.
Pretty much cause its a deeper, less upbeat song than the original, to give it the more 
feel, you should consider neglecting the bottom string [high e].
This isn't strict or anything, and i like the way it sounds with and without, but if you 
to be true to the tone of the song... go for that.

Intro
e| ----------------------------------------------------------------------|
A| -----------------0h2-2-2-----2-2-2-2----------------------------------|
D| ----1-1-1-1------2-2-2-2-----2-2-2-2------4/6----6-6-6--6-6-6-6-4h6---|
G| -2--2-2-2-2------2-2-2-2-----2-2-2-2----4-4/6----6-6-6--4h6-6-6-6-----| x2
B| ----2-2-2-2---0--0-0-0-0--0--0-0-0-0----2------4-4-4-4--4-4-4-4-4-----|
E| -----------------0-0-0-0-----0-0-0-0-----------0-0-0-0--0-0-0-0-0-----|

Verse
e| -----------------------------------------------------------------------|
A| -----------------2-2-2-2-----2-2-2-2-----------------------------------|
D| ----1-1-1-1------2-2-2-2-----2-2-2-2------4/6----6-6-6--6-6-6-6-4h6----|
G| -2--2-2-2-2------2-2-2-2-----2-2-2-2----4-4/6----6-6-6--4h6-6-6-6------|
B| ----2-2-2-2---0--0-0-0-0--0--0-0-0-0----2------4-4-4-4--4-4-4-4-4------|
E| -----------------0-0-0-0-----0-0-0-0-----------0-0-0-0--0-0-0-0-0------|


And repeat that throughout the whole song, with chill out stops where necessary.

Sam Lloyd [Ted]ís version ends like so.

e| --------------------------------------------------------------|
A| ----------2------------------2--------------------------------|
D| -1--------2-----------1------2--------------------------------|
G| -2--------2-----------2------2--------------------------------|
B| -2--------0-----------2------0--------------------------------|
E| -0--------0-----------0------0--------------------------------|

These are softly strummed while Ted sings his lungs out like the majestic man-beast he is.
And thats it, pretty sure this is all right.
Thanks for reading, and have fun with it. Play/sing it to your past, present, or future 
or something.
And then shortly after, be happy with life, because you have a partner.

I'd like to leave you with a sweet moment from scrubs, shared between J.D and Elliot, 
this song is playing.
Thanks for reading. Peace, choose happiness. Love life, its a wonderful thing.

J.D: Elliot, i dont know if its possible for me to put how i feel about you into 
But i guess i'll give it a shot.
I never really believed i would find somebody that i love as much as you. I love you, 
than anything in the whole world...Elliot, i love you more than Turk.
Elliot: *smiles* Oh my god..
JD: I know, thats even hard for me to say.. but its true. I had to wrestle him to the 
to get this, but its more important that you have it.
 *Shows her Turks one of two matching tiki dolls, the other around his neck. J.D then 
it on her. Elliot takes it into her hand and stares at it without words to say*
J.D: Look at me... You're my dream girl...
Tap to rate this tab
# A B C D E F G H I J K L M N O P Q R S T U V W X Y Z