Song name
# A B C D E F G H I J K L M N O P Q R S T U V W X Y Z

Misc Unsigned Bands - Ed Helms - Stus Song The Hangover tab

Stu's song from the Hangover
Standard Tuning

Listen to the song and play with these Chords, should be good. Have fun

Intro

e-3h5/8-------12----8---5--3-5-3h5/8------12----8---5--3-5-3h5/8---5-7-8-10~-|
B---------8-------------6--------------8------------6------------------------|
G-------5---5---10-------------------5---5---10---5--------------5-----------|
D----------------------------------------------------------------------------|
A----------------------------------------------------------------------------|
E----------------------------------------------------------------------------|

Verse

 What do Tigers Dream of, when they take a little tiger snooze?
 Do they dream of mauling zebras, or Halle Berry in her catwoman suit?

e--15---15----15---15----8----8----8----8-----|
B--17---17----17---17----10---10---10---10----|
G--17---17----17---17----10---10---10---10----| x2
D---------------------------------------------|
A-----15---15---15----15----8----8----8----8--|
E---------------------------------------------|


Don't you worry your pretty striped head, we're gonna get you back to Tyson and 
your cozy tiger bed.

And then we're gonna find our best friend Doug, and then we're gonna give him a best friend hug.

e--10----10----12----12----8----8----3---3----|
B--12----12----13----13----10---10---5---5----|
G--12----12----14----14----10---10---5---5----| x2
D---------------------------------------------|
A-----10----10----12----12----8----8---3---3--|
E---------------------------------------------|

 Douuuug Douuuuug, ooh oooh Douuuug, Douuug-y Dougy Doug Doug.

e--10----10----12---11------8--------8------3-------|
B--12----12----13---11------10-------10-----5-------|
G--12----12----14---13------10-------10-----5-------|
D---------------------------8--------8------3-------|
A-----10----10----12--------8--------8------3-------|
E---------------------------8--------8------3-------|

But if hes been Murdered by crystal meth tweekers.. Then we're shit outta luck.

e--8-----------8~-------8-------3----|
B------8---12--10~------10--12--5----|
G--12--10--12--10~------10--12--5----|
D------------------------------------|
A---------------------8--------------|
E------------------------------------|

Tabbed By Aaron
Tap to rate this tab
# A B C D E F G H I J K L M N O P Q R S T U V W X Y Z