Song name
# A B C D E F G H I J K L M N O P Q R S T U V W X Y Z

Misc Unsigned Bands - Show Me The Skyline - Speak Up tab

-------------------------------------------------------------------------------------------------|
Speak Up-Show Me The Skyline
-------------------------------------------------------------------------------------------------|
This is one of my favorite dongs at the moment ao i wanted to learn it so i did :)im the
person to tab this so i had to learn it by ear. i have a cover of it on you tube.
i play it all on the top 3 strings but only because it sounds better on my setup. ill
a chord conversion thingy at the end.

Tunning- Drop D

Intro-
e|---------------------------------------------------------------|
b|---------------------------------------------------------------|
g|---------------------------------------------------------------|
D|-888--8-8/101010\--10-10/121212--12-10/121212121212121212------|
A|-888--8-8/101010\--10-10/121212--12-10/121212121212121212------|
D|-888--8-8/101010\--10-10/121212--12-10/121212121212121212------|
                                          . . . . (un-mute)

e|-------------------------------------------------------------------------|
b|-------------------------------------------------------------------------|
g|-------------------------------------------------------------------------|
D|-12-10-8-8-----10-10-10--8-----15-14-15--8-----10-10-10--8-----15-14-12--|
A|-12-10-8-8(x8)-10-10-10--8(x8)-15-14-15--8(x8)-10-10-10--8(x8)-15-14-12--|
D|-12-10-8-8-----10-10-10--8-----15-14-15--8-----10-10-10--8-----15-14-12--|


Verse I-
e|-----------------------------------------------------------------------|
b|-----------------------------------------------------------------------|
g|-----------------------------------------------------------------------|
D|-8-8-8-8-8-8-8-8-8/10-10-10-10-10-10-10-10-10/12-12-12-12--------------|
A|-8-8-8-8-8-8-8-8-8/10-10-10-10-10-10-10-10-10/12-12-12-12--------------|
D|-8-8-8-8-8-8-8-8-8/10-10-10-10-10-10-10-10-10/12-12-12-12--------------|
     . . . . . . .       .  .  .  .  .  .  .        .  .  .

e|---------------------|
b|---------------------|
g|---------------------|
D|-12-12-12-12121212\--|
A|-12-12-12-12121212\--|
D|-12-12-12-12121212\--|

Chorus-  Reapeat Four Times
e|--------------------------|
b|--------------------------|
g|--------------------------|
D|-3-------10-------8-------|
A|-3(x16)--10(x16)--8(x32)--|
D|-3-------10-------8-------|

Post-Chorus-
e-----|
b-----|
g-----|
D-8~--|
A-8~--|
D-8~--|

Verse II-
e|------------------------------------------------------------------|
b|------------------------------------------------------------------|
g|------------------------------------------------------------------|
D|-8---8---8---8---10---10---10---10---12---12---12---12---12---12--|
A|-8---8---8---8---10---10---10---10---12---12---12---12---12---12--|
D|-8---8---8---8---10---10---10---10---12---12---12---12---12---12--|

e|----------------|
b|----------------|
g|----------------|
D|-12-12-121212\--|
A|-12-12-121212\--|
D|-12-12-121212\--|

e|-----------------------------------------------------------------------------------|
b|-----------------------------------------------------------------------------------|
g|-----------------------------------------------------------------------------------|
D|-8-8-8-8-8-8-8-8-8/10-10-10-10-10-10-10-10-10/12-12-12-12-12-12-12-12--------------|
A|-8-8-8-8-8-8-8-8-8/10-10-10-10-10-10-10-10-10/12-12-12-12-12-12-12-12--------------|
D|-8-8-8-8-8-8-8-8-8/10-10-10-10-10-10-10-10-10/12-12-12-12-12-12-12-12--------------|
   . . . . . . . .       .  .  .  .  .  .  .        .  .  .  .  .  .  .

e|---------------------------------------|
b|---------------------------------------|
g|---------------------------------------| x2
D|-12-12-12-12-12-12-12-12---------------|
A|-12-12-12-12-12-12-12-12---------------|
D|-12-12-12-12-12-12-12-12---------------|
    .  .  .  .  .  .  .  .

e|----------------------------------|
b|----------------------------------|
g|----------------------------------|
D|-12121212121212121212121212121212-|
A|-12121212121212121212121212121212-|
D|-12121212121212121212121212121212-|
    . . . . . . . . . . . .(un-mute)

Chorus-
Repeat Chorus

Bridge-
e|------------------|
b|------------------|
g|------------------| x4
D|-3~--(3)/10~--8~--|
A|-3~--(3)/10~--8~--|
D|-3~--(3)/10~--8~--|

Chorus-
Repeat Chorus

End on-
e|-----|
b|-----|
g|-----|
D|-8~--|
A|-8~--|
D|-8~--|

----------------------------------------------------------------------------
                            Chord Conversion
----------------------------------------------------------------------------

e|-----|------|------|------|-------|
b|-----|------|------|------|-------|
g|---3-|----5-|----7-|----9-|----10-|
D|-8-3-|-10-5-|-12-7-|-14-7-|-15-10-|
A|-8-1-|-10-3-|-12-5-|-14-7-|-15-8--|
D|-8---|-10---|-12---|-14---|-15----|
    A#    C      D      E       E#

you can use either chord it just depends on your setup. please go check out my youtube,
at the top a the page. it would b very apretiated. subscribe and comment :)
also if u wanna add my myspace, search tmanf22@yahoo.com
Tap to rate this tab
# A B C D E F G H I J K L M N O P Q R S T U V W X Y Z