Song name
# A B C D E F G H I J K L M N O P Q R S T U V W X Y Z

Misc Unsigned Bands - Stoneedge - Pain Is Sadness tab

RIFF 1

LOW E-------------O-------|
    A-------------O-------|
    B-------------9-------|     STRUM 8X
    D-------------9-------|
    G-------------9-------|
    E-------------9-------|

    RIFF 2

LOW E---------O------|
    a---------O------|
    b---------7------|
    d---------7------|         strum 8x
    g---------7------|
    e---------7------|

       riff 3

low e--------O-----|
    a--------O-----|
    b--------5-----|
    d--------5-----|     STRUM 1X and then repeat FROM RIFF 1
    g--------5-----|
    e--------5-----|

repeat RIFF 1 2 and 3 25 times.

after repeating 25 TIMES, SKIP RIFF 3.(Play only riffs 1 AND 2.)20X

after repeating RIFFS 1 and 2 20x, add IN RIFF 3 BUT As lead... RHYTHM SHOULD STay the 
FOR REST OF SONG.

at end of song rythm should ADD LOW E and A INTO RHYTHM.
LIKE THIS.

riff 4
LOW E-----9-----|
    a-----9-----|
    b-----9-----|    STRUM 8X
    d-----9-----|
    g-----9-----|
    e-----9-----|

riff 5

low e-----7-----|
    a-----7-----|
    b-----7-----| STRUM 8X
    d-----7-----|
    g-----7-----|
    e-----7-----|

riff 6

low e-----5-----|
    a-----5-----|
    B-----5-----|
    D-----5-----|    STRUM 2X
    G-----5-----|
    E-----5-----|

REPEat riff 4 5 aND 6 12X

END OF SONG.

IF YOU Have ANY quetions or comments pleASE FEEL FREE TO EMail me AT TYLER.BENNETT1@GMail.com
Tap to rate this tab
# A B C D E F G H I J K L M N O P Q R S T U V W X Y Z