Song name
# A B C D E F G H I J K L M N O P Q R S T U V W X Y Z

Misc Unsigned Bands - Wildwood Flower - Lester Flatt And Earl Scruggs tab

Wildwood Flower
E|-------------------------------------0-0---0-0-0---0-0-0---------------|
B|---------1-1-----1-------------------1-1---1-1-1--1------2-1-------1---|
G|-0-0-0-0-0-0-2-0---------------------0-0---0-0-0-0-----------3-2-2--2-0|
D|-2-2-3-4-----------2-2-3-2-0-0-2-0---2-2---2-2-2-----------------------|
A|-----------------------------------3-3-3---3-3-3-----------------------|
E|-----------------------------------------3-----------------------------|

E|--------------------------0---0---0|
B|--------------------------1---1---1|
G|-2-0--------0-------------0---0---0|
D|----2-2-0--2--2-0-0-2-0---2---2---2|
A|----------3-------------3-3---3-3-3|
E|----------------------------3------| Repeat as many x's as you want.

E-Mail- ace21425782@gmail.com i figured this out myself im 100% sure is right because i 
it with the record all the time, but if u find anything pleas tell me. thnx
-Austin Pierce
Tap to rate this tab
# A B C D E F G H I J K L M N O P Q R S T U V W X Y Z