Song name
# A B C D E F G H I J K L M N O P Q R S T U V W X Y Z

Misc Unsigned Bands - Corrupt - Scream tab

intro and verse:
    
e-------------|-----------------------|
b-------------|-----------------------|
g-------------|-----------------------|
d----0-----0--|----0---2--0----0----0-|
a-------------|------0----------------|
d-0-----0-----|--0-----------3----5---|

chorus:

e-----------------------------------------|
b-----------------------------------------|
g-----------------------------------------|
d--7-7-7-7-7-7-7-10-10-10-10-10--12-12-12-|
a--5-5-0-5-5-5-5--8--8--8--8--8--10-10-10-|
d-----------------------------------------|


chorus:

e-----------------------------------------|
b-----------------------------------------|
g-----------------------------------------|
d--7-7-7-7-7-7-7-10-10-10-10-10--5-5-5----|
a--5-5-0-5-5-5-5--8--8--8--8--8--3-3-3----|
d-----------------------------------------|


rythm in the solo part: 

e-------------------------------------|  |----------------------------------
b-------------------------------------|  |----------------------------------
g-------------------------------------|  |----------------------------------
d-7-7-7-7-7-7-10-10-10-12-12-12-12-12-|X3|-10-10-7-7-10-10-7-7-7-7--5-5-5/7
a-5-5-5-5-5-5--8--8--8-12-12-12-12-12-|  |--8--8-5-5--8--8-5-5-5-5--3-3-3/5 
d-------------------------------------|  |----------------------------------

last chorus: 

e------------------------------------------------------|
b------------------------------------------------------|
g------------------------------------------------------|
d-7--7--7--7--10--10--12--12--7--7--7--7--10--10--5--5-|
a-5--5--5--5---8---8--10--10--5--5--5--5---8---8--3--3-|
d------------------------------------------------------|

e------------------------------------------------------------------------|
b------------------------------------------------------------------------|
g------------------------------------------------------------------------|
d-7--7--7--7--10--10--12--12--7--7--7--7--10--10--5--5--7--7--5--5--7--7-|
a-5--5--5--5---8---8--10--10--5--5--5--5---8---8--3--3--5--5--3--3--5--5-|
d------------------------------------------------------------------------|

e-----------------------------|
b-----------------------------|
g-----------------------------|
d-5--5--7--7--5--5-5-5-5-5--0~|
a-3--3--5--5--3--3-3-3-3-3--0~|
d---------------------------0~|
Tap to rate this tab
# A B C D E F G H I J K L M N O P Q R S T U V W X Y Z