Song name
# A B C D E F G H I J K L M N O P Q R S T U V W X Y Z

Misc Unsigned Bands - Vesuvius - Pompeii Nights tab

vesuvius
pomopeii nights  any problems email me at james-666@live.co.uk
this is the intro but there are two guitars for it. ill tab both guitars
E----------------------------------------------------------------------------|
B----------------------------------------------------------------------------|
G-4br-2----------------------------------------------------------------------|
D-------4-2------------------------------------------------------------------|
A-----------4-2-4-2-0--------------------------------------------------------|
E---------------------2------------------------------------------------------|

E-7br-5---------------------------------------------------------------------|
B-------7-5-----------------------------------------------------------------|
G-----------6-4-6-4---------------------------------------------------------|
D-------------------7-4-----------------------------------------------------|
A---------------------------------------------------------------------------|
E---------------------------------------------------------------------------|
verse. the verse is chords
 x13 f#        Em   f
E-2----------------2--------------------------------------------------------|
B-2----------------2--------------------------------------------------------|
G-3----------------3--------------------------------------------------------|
D-4------------2-2-4--------------------------------------------------------|
A-4------------2-2-4--------------------------------------------------------|
E-2----------------2--------------------------------------------------------|
 chorus
E-2-------------------------------------------------------------------------|
B-2-----------------------2--------4----------------------------------------|
G-3-----------------------2--------4------------------4br2------------------|
D-4-----------------2-2---2--------4-----------------------4-2--------------|
A-4-----------------2-2------------2---------------------------0------------|
E-2--------------------------------------------------------------2----------|

sorry i dont know the solo yet but the chords played over it are F# and E
Tap to rate this tab
 
# A B C D E F G H I J K L M N O P Q R S T U V W X Y Z