Song name
# A B C D E F G H I J K L M N O P Q R S T U V W X Y Z

Misc Unsigned Bands - Carter Hulsey - Before We Go Down chords

Highlighted       Show chord diagrams
-------------------------------------------------------------------------------
			     CARTER HULSEY - BEFORE WE GO DOWN
-------------------------------------------------------------------------------
Tabbed by:saysomethingser
Email:familyguyfan1013@yahoo.com
CAPO 2 

Tuning:STANDARD


INTRO

e|----------------------------------------------------------|
B|----------------------------------------------------------|
G|-------7-----------------7------------------7h------------|
D|-------7-----------------7--------7h----------------------| 
A|-5--------------5-----------------------------------------|
E|----------------------------------------------------------| 

VERSE 
 
E|----------3--------------------------------------------------------------|
B|----------3-------------3------------------2----------------3------------|
G|------------------------2------------------2----------------2------------| 
D|------------------0------------------2--------------0--------------------| 
A|-------------------------------------------------------------------------|
E|---3---------------------------------------------------------------------| 
(or just play   G , D , A , D )

(VERSE)

The water fell from the sky

It rained all day and all night

And the rivers flooded our whole town

So I swam to your house so we could float around

(CHORUS)

             G            D   
And I said, before we go down
            A              D
I have to tell you that I love you
  G           D  
Before we go down
             A         D
I hope you know that I care
          G               D
'Cause I kept all these words
A              D
Bottled up so tight
G                             D
But tonight's the night I'll tell ya
A                        G
You're the love of my life


e|----------------------------------------------------------|
B|----------------------------------------------------------|you have to 
G|-------7-----------------7------------------7h------------|play the first 
D|-------7-----------------7--------7h----------------------| thing a few 
A|-5--------------5-----------------------------------------|times before 
E|----------------------------------------------------------| the harmonics

E|----------3--------------------------------------------------------------|
B|----------3-------------3------------------2----------------3------------|
G|------------------------2------------------2----------------2------------| 
D|------------------0------------------2--------------0--------------------| 
A|-------------------------------------------------------------------------|
E|---3---------------------------------------------------------------------| 
(or just play   G , D , A , D )

Our plane came tumbling from the sky
We fell so fast, we were up so high
And you didn't even make a sound
But I held your hand, 'til we hit the ground 




             G            D   
And I said, before we go down
            A              D
I have to tell you that I love you
  G           D  
Before we go down
             A         D
I hope you know that I care
          G               D
'Cause I kept all these words
A              D
Bottled up so tight
G                             D
But tonight's the night I'll tell ya
A                        G
You're the love of my life





             G            D   
And I said, before we go down
            A              D
I have to tell you that I love you
  G           D  
Before we go down
             A         D
I hope you know that I care
          G               D
'Cause I kept all these words
A              D
Bottled up so tight
G                             D
But tonight's the night I'll tell ya
A                        G
You're the love of my life		




h = harmonic
Tap to rate this tab
# A B C D E F G H I J K L M N O P Q R S T U V W X Y Z