Song name
# A B C D E F G H I J K L M N O P Q R S T U V W X Y Z

Misc Unsigned Bands - Naked City - Bonehead tab

This is a close guess as to what the tabs actually are.
Intro

|-------------------|
|-------------------|
|-------------------|
|-6--5--2--5--3--5--| (2x)
|-6--5--2--5--3--5--|
|-6--5--2--5--3--5--|

Chorus?
|--------------------------|
|--------------------------|
|--------------------------|
|-6-5-2-6-5-2--2-5-6-2-5-6-| (2x)
|-6-5-2-6-5-2--2-5-6-2-5-6-|
|-6-5-2-6-5-2--2-5-6-2-5-6-|

Verse?
|-----------|
|-----------|
|-----------|
|-2-5-6-3-6-|
|-2-5-6-3-6-|
|-2-5-6-3-6-| (5x) then,

|--------------------------|
|--------------------------|
|--------------------------|
|-6-5-2-6-5-2--2-5-6-2-5-6-| (2x)
|-6-5-2-6-5-2--2-5-6-2-5-6-|
|-6-5-2-6-5-2--2-5-6-2-5-6-|

Interlude?
I have no idea.

Then, play the intro again

|-------------------|
|-------------------|
|-------------------|
|-6--5--2--5--3--5--| (2x)
|-6--5--2--5--3--5--|
|-6--5--2--5--3--5--|
Tap to rate this tab
# A B C D E F G H I J K L M N O P Q R S T U V W X Y Z