Song name
# A B C D E F G H I J K L M N O P Q R S T U V W X Y Z

Misc Unsigned Bands - No Label - The River tab

e|-----------------------------|-----------------------------|
B|--------1--------------------|--------1--------------------|
G|------2---2----------1-------|------2---2----------1-------|
D|----2-------2------2---2-----|----2-------2------2---2-----|
A|--0--------------2-------2---|--0--------------2-------2---|
E|---------------0-------------|---------------0-------------|



e|--------1--------------------|-----------------------------|
B|------3---3----------1-------|---------------------1-------|
G|----2-------2------2---2-----|--------1----------2---2-----|
D|--0--------------2-------2---|------2---2------2-------2---|
A|---------------0-------------|----2-------2--0-------------|
E|-----------------------------|--0--------------------------|

   Am  EM  Am  EM  Dm  Am  EM  Am    Am  EM  Am  EM  Dm  Am  EM  Am  

e|--0---0---0---0---1---0---0---0--|--0---0---0---0---1---0---0---0--|
B|--1---0---1---0---3---1---0---1--|--1---0---1---0---3---1---0---1--|
G|--2---1---2---1---2---2---1---2--|--2---1---2---1---2---2---1---2--|
D|--2---2---2---2---0---2---2---2--|--2---2---2---2---0---2---2---2--|
A|--0---2---0---2-------0---2---0--|--0---2---0---2-------0---2---0--|
E|------0-------0-----------0------|------0-------0-----------0------|

   Dm  FM  Am  EM    Dm  FM  Am  EM    Dm  FM  Am  EM    Dm  FM  Am  BM

e|--1---5---0---0--|--1---5---0---0--|--1---5---0---0--|--1---5---0---7--|
B|--3---6---1---0--|--3---6---1---0--|--3---6---1---0--|--3---6---1---4--|
G|--2---5---2---1--|--2---5---2---1--|--2---5---2---1--|--2---5---2---4--|
D|--0-------2---2--|--0-------2---2--|--0-------2---2--|--0-------2------|
A|----------0---2--|----------0---2--|----------0---2--|----------0------|
E|--------------0--|--------------0--|--------------0--|-----------------|



e|-----------------------------|-----------------------------|
B|--------1--------------------|--------1--------------------|
G|------2---2----------1-------|------2---2----------1-------|
D|----2-------2------2---2-----|----2-------2------2---2-----|
A|--0--------------2-------2---|--0--------------2-------2---|
E|---------------0-------------|---------------0-------------|



e|--------1--------------------|-----------------------------|
B|------3---3----------1-------|---------------------1-------|
G|----2-------2------2---2-----|--------1----------2---2-----|
D|--0--------------2-------2---|------2---2------2-------2---|
A|---------------0-------------|----2-------2--0-------------|
E|-----------------------------|--0--------------------------|
Tap to rate this tab
# A B C D E F G H I J K L M N O P Q R S T U V W X Y Z