Song name
# A B C D E F G H I J K L M N O P Q R S T U V W X Y Z

Misc Unsigned Bands - Ian Bateman - Rocket Ride tab

Intro

|--0------0--------------3--------0-----0--------0-----0-----|
|----1------1------3-------3--------1-----1--------1---------|
|------0------0------0-------0--------2-----2--------2-------|
|----------------------0-------------------------------------|
|3------------------------------0--------------0-------------|
|----------------3-------------------------------------------|

|--1----1-------3-----3-------0-|
|----1----1-------3-----3-----1-|
|2-----2----2-------0-----0---0-|
|-----------------------------2-|
|--------------2--------------3-|
|-------------------------------|


C          G                Am
  Lifes my rocket ride to heaven
Fm                 G              C
  And theres only room for me and you
C             G        Am
  My life was dull and boring
Fm       G        C
  Before you came along
Am                 Fm           C
  Brightened up my black and my white
Am                   Fm      C
  When you sang your song to me
C          G          Am
  Now it's all been forgotten
Fm        G     C
  You and I, I mean

                            Play Intro 2x

C       G              Am
  If it makes you feel better
Fm           G           C
  I think of you all the time
Am       Fm        C
  And if we were together
Fm         G       C
  It would be just fine
Tap to rate this tab
# A B C D E F G H I J K L M N O P Q R S T U V W X Y Z