Song name
# A B C D E F G H I J K L M N O P Q R S T U V W X Y Z

Misc Unsigned Bands - Shin Megami Tensei Devil Survivor - Reset Instrumental tab

Tabbed by: fooltoast
Email: fooltoast@gmail.com

Tuning: Standard

Done by ear but I think it's relatively close, listen to the song for timing because 
a little tricky.

---------------------------------------------------------------------------|
---------------------------------------------------------------------------|
-------------------------------------------17------------------17------20--|
---14----16-17-16-----17--19/21\19---19-21-----19--21--17--19------21------|
------------------17-------------------------------------------------------|
---------------------------------------------------------------------------|

----------------------------------------------------------------------------|
----------------------------------------------------------------------------|
-21~-19h21p19-----------------------------17-----------------17------20--21-|
-----------------21---19-17-19---17-19-21-----19--21--17--19-----21---------|
----------------------------------------------------------------------------|
----------------------------------------------------------------------------|
************************************

| /   slide up
| \   slide down
| h   hammer-on
| p   pull-off
| ~   vibrato
| +   harmonic
| x   Mute note
| b   Bend
| pb  Pre-bend
| br  Bend release
| pbr Pre-bend release
| brb Bend release bend

************************************
Tap to rate this tab
# A B C D E F G H I J K L M N O P Q R S T U V W X Y Z