Song name
# A B C D E F G H I J K L M N O P Q R S T U V W X Y Z

Misc Unsigned Bands - Aurora - Iwas tab

Iwas By Aurora

Im Not Pretty Sure Bout this ..
But i Think This is 80% Accurate ..


Please Correct me if im Wrong..
Contact Info

Mobile: 09054314577
FB: pogi_bronz03@yahoo.com
YM: roniejmercado@yahoo.com

Address: Zamboanga City Philippines

***************************************************************************


Intro/Verse:

Pakinggan Niu n lang ang Song Para sa Strumming Pattern

-xxx--000-xxx----------|
-xxx--000-xxx----------|
-xxx--111-444----------|
-666--222-444----------|
-666--222-222----------|
-444--xxx--------------|

/: slide

CHorus:

-xxxxx-/-xxxx---xx--xx--00------------|
-xxxxx-/-xxxx---xx--xx--00------------|
-44444-/-8888---xx--xx--11------------|
-44444-/-8888---66--44--22------------|
-22222-/-6666---66--44--22------------|
----------------44--22--xx------------|
Tap to rate this tab
 
# A B C D E F G H I J K L M N O P Q R S T U V W X Y Z