Song name
# A B C D E F G H I J K L M N O P Q R S T U V W X Y Z

Misc Unsigned Bands - Amy Can Flyy - Dinosaurs Go Rawr tab

this is dinosaurs go rawr :)

(.)pm
drop D tuning
Intro
     . .                          . .
e|----------------------------|----------------------|
B|----------------------------|----------------------|
G|---------------------11-12--|----------------9-12--|    X2
D|---0-0-0~-------------------|---0-0-0~-------------|
A|---0-0-0~------------9--10--|---0-0-0~-------7-10--|
D|---0-0-0~-------------------|---0-0-0~-------------|
      
main riff 

e|----------|
B|----------|
G|----------|  X2
D|-0-0--4-5-|
A|-0-0--4-5-|
D|-0-0--4-5-|

e|---------------------|--------------------------------|
B|---------------------|--------------------------------|
G|---7---7----10-9--12-|-7--7---11--12--------7~--------|
D|---7---7----10-9--12-|-7--7---11--12--------7~--------|
A|---5---5----8--7--10-|-5--5---9---10--------5~--------|
D|---------------------|--------------------------------|

Dinosaurs go Rawr

e|---------------------|
B|---------------------|
G|---------------------|
D|--7---5-------7---5--| X2
A|--7---5-------7---5--|
D|--7---5-------7---5--|

 main riff again

e|----------|
B|----------|
G|----------|  X2
D|-0-0--4-5-|
A|-0-0--4-5-|
D|-0-0--4-5-|

  chorus
e|---------------------|
B|---------------------|
G|---------------------|
D|--7---5-------7---5--| X2
A|--7---5-------7---5--|
D|--7---5-------7---5--|

e|---------------------------------|
B|---------------------------------| 
G|---------------------------------| 
D|-9~-7~-5~-0~----9~-7~-5~-0-0-0-0-|
A|-9~-7~-5~-0~----9~-7~-5~-0-0-0-0-|
D|-9~-7~-5~-0~----9~-7~-5~-0-0-0-0-| 
                           * * * *
   . .     .    ..      .     . .     .    . .
e|--------------------------------------------------|
B|--------------------------------------------------|
G|--------------------------------------------------|
D|-9-9-9---9-9--7-7-7---7-7---5-5-5---5-5--0-0-0----|
A|-9-9-9---9-9--7-7-7---7-7---5-5-5---5-5--0-0-0----|
D|-9-9-9---9-9--7-7-7---7-7---5-5-5---5-5--0-0-0----|

e|--------------------------|----------|
B|--------------------------|----------|
G|--------------------------|----------|
D|-4-4-4-4-4-4-4-4-2---5-5--|-----0~---|
A|-4-4-4-4-4-4-4-4-2---5-5--|-----0~---|
D|-4-4-4-4-4-4-4-4-2---5-5--|-----0~---|

chorus                                                         
e|---------------------|
B|---------------------|
G|---------------------|
D|--7~-5~--7~-5~--7~-5-|
A|--7~-5~--7~-5~--7~-5-|
D|--7~-5~--7~-5~--7~-5-|

main riff
e|----------|
B|----------|
G|----------|  X2
D|-0-0--4-5-|
A|-0-0--4-5-|
D|-0-0--4-5-|

e|---------------------|---------------------------|
B|---------------------|---------------------------|
G|--7---7----10-9--12--|-7--7---11-11---12-12------|
D|---------------------|---------------------------|
A|--5---5----7--7--10--|-5--5---9--9----10-10------|
D|---------------------|---------------------------|

thats about it please rate :)

	
Tap to rate this tab
 
# A B C D E F G H I J K L M N O P Q R S T U V W X Y Z