Song name
# A B C D E F G H I J K L M N O P Q R S T U V W X Y Z

Misc Unsigned Bands - Nano - Hope tab

this is my first song
so, don't hate me



Gtr I (E A D G B E)

Intro:
e|----------|    ---------------|    ----------0-|    ----------3|    |--3--|
B|---------0|    -----------1---|    ------1-----|    ------1----|    |--1--|
G|-----0----| X4 -------0-------| X4 ----2---2---| X4 ----2---2--| X4 |--2--|
D|---2---2--|    -----2---2-----|    --2---------|    --0--------|    |--0--|
A|-2--------|    ---3-----------|    ------------|    -----------|    |--0--|
E|----------|    ---------------|    ------------|    -----------|    |--0--|




CHORDS:

C---Em---C---Em

Am--Em---Am--Em

C---Em---C---Em

Am--Em---Am--Em

C---Em---C---Em





Outro:
e|----------0-|    ------------|    ------------|    ----------1-|
B|------1-----|    ----------0-|    ------------|    ------0-----|
G|--------2---| X2 ------0-----| X2 ----------0-| X2 ----0---0---| X2
D|----3-------|    ----2---2---|    ------0-----|    --0---------|
A|------------|    --3---------|    ----2---2---|    ------------|
E|--0---------|    ------------|    --3---------|    ------------|


good!
:D
Tap to rate this tab
# A B C D E F G H I J K L M N O P Q R S T U V W X Y Z