Song name
# A B C D E F G H I J K L M N O P Q R S T U V W X Y Z

Misc Unsigned Bands - Whitney Wiatt - Oh The Places Youll Go tab

ok. i'm not sure if this is a 100 percent accurate. but it sounds pretty darn good. 
Capo on 2nd fret.

First verse
e|---0----0----0---0~~~---0----0----0----0---0~~~---0----0---0~~~|
b|----0----0----0--0~~~----0----0----0----0--0~~~----0----0--0~~~|
g|-----------------4~~~----------------------2~~~------------6~~~|
d|--2----6----4----4~~~--2----6----4----2----2~~~--4----6----6~~~|
a|-0----4----2-----2~~~-0----4----2----0-----0~~~-2----4-----4~~~|
E|-----------------0~~~----------------------0~~~------------0~~~|


Chorus
(strumming not shown)
e|--0--0--0--|
b|--0--0--0--|
g|--2--6--4--| X 4
d|--2--6--4--|
a|--0--4--2--|
E|--0--0--0--|


Second Verse
e|---0----0----0---0~~~---0----0----0----0----0----0---0~~~|
b|----0----0----0--0~~~----0----0----0----0----0----0--0~~~|
g|-----------------4~~~----------------2----1----2-----2~~~|
d|--2----6----4----4~~~--2----6----4----2----2----2----2~~~|
a|-0----4----2-----2~~~-0----4----2--------------------0~~~|
E|-----------------0~~~--------------------------------0~~~|


Chorus
(strumming not shown)
e|--0--0--0--|
b|--0--0--0--|
g|--2--6--4--| X 4
d|--2--6--4--|
a|--0--4--2--|
E|--0--0--0--|


Bridge
(strumming not shown)
e|--0--0--0--|
b|--0--0--0--|
g|--2--6--4--| X 4
d|--2--6--4--|
a|--0--4--2--|
E|--0--0--0--|


Chorus
e|---0----0----0---0~~~|
b|----0----0----0--0~~~|
g|-----------------4~~~|
d|--2----6----4----4~~~| X 4
a|-0----4----2-----2~~~|
E|-----------------0~~~|
Tap to rate this tab
 
# A B C D E F G H I J K L M N O P Q R S T U V W X Y Z