Song name
# A B C D E F G H I J K L M N O P Q R S T U V W X Y Z

Misc Unsigned Bands - Symbolum 77 - Tu Sei La Mia Vita tab

symbolum '77 - Tu sei la mia vita

VIDEO TAB: http://www.youtube.com/watch?v=3eFiW9mIMTI


|-----------------------------------------------|
|--0----0-2--3----3----2--3--2-------------0----|
|-------------------------------2---2--------2--|
|-----2--------0----0-------------------0-------|
|--2-------------------0------------------------|
|------------3----------------------2-----------|


|------------------------------------3---2----------|
|---0-----0--2--3-----3-----2--3--5-----------0-----|
|-----------------------------------------------2---|
|------2-----------0----0-------------------0-------|
|---2-----------------------0-----------------------|
|---------------3------------------------2----------|


|--3--2--3----------------------------------------|
|-----------0--0h2---2----7--5--7-----------2-----|
|--------------0h2---2-------------2---4-------0--|
|--2--------------------------------------0-------|
|-----------0--0-----0----5--------0--------------|
|--------------------------------------3----------|


|-----------------------------------3--2----------|
|--0--2--3--0--2--3--5--2--3--5--7----------0-----|
|----------------------------------------------2--|
|--------------------------0--------------0-------|
|--------------0----------------------------------|
|--3-----------------------------------2----------|


|--3--2--3----------------------------------------|-----------------------|
|-----------0--0h2---2---\7--5--7-----------2-----|--0--2--3--0--2--3--2--|
|--------------0h2---2-------------2---4-------0--|-----------------------|
|--2--------------------------------------0-------|-----------------------|
|-----------0--0-----0---\5--------0--------------|--------------0--------|
|--------------------------------------3----------|--3--------------------|

|--------0---------------0----------------0---------------0-------------|
|--0--------0---------------0----------------0---------------0----------|
|-----0--------0------0--------0-------0--------0------0--------0-------|
|-----------------------------------------------------------------------|
|-----------------------------------------------------------------------|
|--3--------------3-3-------------3-3--------------3-3-------------3-5--|




Tu sei la mia vita, altro io non ho
Tu sei la mia strada, la mia verita'
nella Tua Parola io camminero'
finche' avro' respiro, fino a quando Tu vorrai
non avro' paura, sai, se Tu sei con me
io Ti prego: resta con me.

Credo in Te, Signore, nato da Maria,
Figlio eterno e Santo, uomo come noi;
morto per amore, vivo in mezzo a noi,
una cosa sola con il Padre e con i tuoi,
fino a quando, io lo so, Tu ritornerai
per aprirci il Regno di Dio.

Tu sei la mia vita, altro io non ho
Tu sei la mia pace, la mia liberta'
niente nella vita ci separera'
so che la Tua Mano forte non mi lascera'
so che da ogni male Tu mi libererai
e nel Tuo perdono vivro'

Padre della vita, noi crediamo in Te
Figlio Salvatore, noi speriamo in Te
Spirito d'Amore vieni in mezzo a noi
Tu da mille strade ci raduni in unita'
e per mille strade poi dove Tu vorrai
noi saremo il seme di Dio

Tap to rate this tab
# A B C D E F G H I J K L M N O P Q R S T U V W X Y Z