Song name
# A B C D E F G H I J K L M N O P Q R S T U V W X Y Z

Misc Unsigned Bands - Bluebook - Its Like A This B That C Other How tab

-----------------------------------------------------
BLUEBOOK - IT'S LIKE a) THIS, b) THAT, c) OTHER, HOW?
-----------------------------------------------------

Check out www.bluebookband.net - The official website of Bluebook to play along these tunes!
From the website you can find Bluebook Songbook as well, where you will find more chords and tabs!


CHORD PATTERNS
--------------
C       x32010
Am      x02210
G       355433
F#m     244222
E       022100
D       xx0232
--------------


INTRO LEAD (continues to play in verse)
   C               C                x2Am              Am               x2
e |---------------|------------------|---------------|------------------|
B |-1h3-3-3-3-3-1-|-0--0-0-0-0-0-1-1-|-3/5-5-5-5-5-3-|-1--1-1-1-1-1h3-3-|
G |-0-0-0-0-0-0-0-|-0--0-0-0-0-0-0-0-|-0-0-0-0-0-0-0-|-0--0-0-0-0-0-0-0-|
D |---------------|------------------|---------------|------------------|
A |---------------|------------------|---------------|------------------|
E |---------------|------------------|---------------|------------------|
     
C
Let it rain it reminds me of summer
          Am
Flood the lake with the crest of a new wave
        G    Am   
I could talk endlessly about politics
        G        Am
I could fall hopelessly into your arms
     C 
Look around I see a world run by ignorant minds
        Am*
Give me hope that it's not impossible to meet others who care


*On this Am play lead as follows:
e |---------------|------------------|---------------|------------------|
B |-3/5-5-5-5-5-3-|-1--1-1-1-1-1-3-3-|-3/5-5-0-5-0-5-|-3--3-3-0-3-0-3-5-|
G |-0-0-0-0-0-0-0-|-0--0-0-0-0-0-0-0-|-0-0-0-0-0-0-0-|-0--0-0-0-0-0-0-0-|
D |---------------|------------------|---------------|------------------|
A |---------------|------------------|---------------|------------------|
E |---------------|------------------|---------------|------------------|


F#m                         A
Let all eyes see what's going on
F#m                   A
Let all ears hear the truth
     E        D      
Will you sing along with me?
                                                      
LEAD GUITAR ON CHORUS:                                                2x
e |------0--0-2-0-|-2--2-2-0-0-2-2-0-|---------------|------------------|
B |---------------|------------------|------2--2-2-0-|-2--2-2-0-0-2-2-0-|
G |---------------|------------------|---------------|------------------|
D |---------------|------------------|---------------|------------------|
A |---------------|------------------|---------------|------------------|
E |---------------|------------------|---------------|------------------|

e |-2-------------|--2--4--2--0------|
B |---------------|------------------|
G |---------------|------------------|
D |---------------|------------------|
A |---------------|------------------|
E |---------------|------------------|

        C                 
Tell me you enjoy these pamphlets more
          Am                     
More than we enjoyed watching Rambo IV
      G          Am        
Do we stay? Just where do you draw the line?
      G           Am
Do we go? What if I called you tonight?
     C            
Look around, I see a world run by ignorant minds
        Am*
So come on If we don't step up who do you think will?


F#m                         A
Let all eyes see what's going on
F#m                   A
Let all ears hear the truth
     E        D      
Will you sing along with me?


Repeat Chorus and end on F#m

************************************

| /   slide up
| \   slide down
| h   hammer-on
| p   pull-off
| ~   vibrato
| +   harmonic
| x   Mute note
| b   Bend
| pb  Pre-bend
| br  Bend release
| pbr Pre-bend release
| brb Bend release bend

************************************
Tap to rate this tab
# A B C D E F G H I J K L M N O P Q R S T U V W X Y Z