Song name
# A B C D E F G H I J K L M N O P Q R S T U V W X Y Z

Misc Unsigned Bands - Bluebook - You Make History We Make Plans tab

------------------------------------------
BLUEBOOK - YOU MAKE HISTORY, WE MAKE PLANS
------------------------------------------

Check out www.bluebookband.net - The official website of Bluebook to play along these tunes!
From the website you can find Bluebook Songbook as well, where you will find more chords and tabs!


CHORD PATTERNS
--------------
G/D     300033
Am      x02210
C       x32010
Em      022000
G       320033
D       xx0232
--------------

G/D     G/D      Am      Am      2x

D/G  Am Am     C C       4x

VERSE
   Bmadd9 Bm                       D7M D
e |-------------------------------|-------------------------------|
B |-------------------------------|-------------------------------|
G |-6--7-7-7-7-7-7-6--7-7-7-7-6-6-|-6--7-7-7-7-7-7-6--7-7-7-7-6-6-|
D |-0--0-0-0-0-0-0-0--0-0-0-0-0-0-|-0--0-0-0-0-0-0-0--0-0-0-0-0-0-|
A |-------------------------------|-------------------------------|
E |-7--7-7-7-7-7-7-7--7-7-7-7-7-7-|-5--5-5-5-5-5-5-5--5-5-5-5-5-5-|

Surrounded, cornered, and smothered
We all get our share
We're all infected with the same disease
The social birth defect

PRE-CHORUS 2x (last repeat adjust chords D and C to a crescendo from C)
   Em        G      D         C         Em      G       D        C
e |----------------|------------------|---------------|------------------|
B |--------------0-|------3-------1---|-------------0-|------3-------1---|
G |------0---------|----2---2-------0-|-----0---------|----2---2-------0-|
D |--------2-------|-0----------2-----|-------2-------|-0----------2-----|
A |----2-------2---|----------3-------|---2-------2---|----------3-------|
E |-0--------3-----|------------------|-0-------3-----|------------------|

CHORUS

G/D                        Am
And in this place we call "home"
                      G/D
The problem's chronic
                        Am
From the micro level of cities
                                D/G
To the macro level of the nation


D/G  Am Am     C C       4x


VERSE (Repeat verse riff)
Anxiety, aggression, or depression
With some of us
Introversion, ignorance, or wanting out
With some of us
We all fight the battle
In our own ways
Whether we know it or not
Our actions are just war tactics


PRE-CHORUS (Repeat pre-chorus)
Em       G    D          C
    Take this guitar and the
  Em         G        D         C
Unrestrained world of these chords
Em  G        D       C 
    It's the way out for me
Em       G           C
And it's the way for you baby


G/D                        Am
And in this place we call "home"
                     G/D
The problem's chronic 
                       Am
To get by is different 'round here
        G/D
So tell me
                      Am
How could we lead the life you live?
                  
When every-thing's
G/D                    Am
So fucking restrained in here
D/G  Am Am     C C  
From the micro level of cities
D/G  Am Am     C C  
D/G  Am Am     C C  
To the macro level of the nation

D/G  Am Am     C C  

************************************

| /   slide up
| \   slide down
| h   hammer-on
| p   pull-off
| ~   vibrato
| +   harmonic
| x   Mute note
| b   Bend
| pb  Pre-bend
| br  Bend release
| pbr Pre-bend release
| brb Bend release bend

************************************
Tap to rate this tab
# A B C D E F G H I J K L M N O P Q R S T U V W X Y Z