Song name
# A B C D E F G H I J K L M N O P Q R S T U V W X Y Z

Misc Unsigned Bands - Bluebook - Life And Whats Left Of It tab

-------------------------------------
BLUEBOOK - LIFE AND WHAT'S LEFT OF IT
-------------------------------------

Check out www.bluebookband.net - The official website of Bluebook to play along these tunes!
From the website you can find Bluebook Songbook as well, where you will find more chords and tabs!

CHORD PATTERNS
--------------
D       xx0232
D/A     xx0220
A       x02220
A/C#    x47655
Em7     022033
E/G#    422100
Hm      x24432
F#m     244222
G       320033
--------------

INTRO 2x
(Guitar 1 P.M., Guitar 2 open)
                  2x                2x
e |-----------------|-----------------|-
B |-----------------|-----------------|-
G |-----------------|-----------------|-
D |-----7-----7---7-|-----7-----7---7-|-
A |-4-5---4-5---4---|-0-4---0-4---0---|-
E |-----------------|-----------------|-

VERSE
e |-----------------|-----------------|-----------------|-----------------|-
B |-----------------|-----------------|-----------------|-----------------|-
G |-----------------|-----------------|-----------------|-----------------|-
D |-7-7-7-7-7-7-7-7-|-7-7-7-7-7-7-7-7-|-7-7-7-7-7-7-7-7-|-7-7-7-7-7-7-7-7-|-
A |-4-5-5-4-5-5-4-5-|-4-5-5-4-5-5-4-5-|-0-4-4-0-4-4-0-4-|-0-4-4-0-4-4-0-4-|-
E |-0-0-0-0-0-0-0-0-|-0-0-0-0-0-0-0-0-|-0-0-0-0-0-0-0-0-|-0-0-0-0-0-0-0-0-|-
  |                 |                 |                 |                 |
e |-----------------|-----------------|-----------------|-----------------|-
B |---5-5-5-5-5-5-5-|-5-5-5-3-3-3-2-2-|-2-3-3-3-3-3-3-3-|-2-3-3-3-3-3-3-3-|-
G |-2-2-2-2-2-2-2-2-|-2-2-2-2-2-2-2-2-|-2-2-2-2-2-2-2-2-|-2-2-2-2-2-2-2-2-|-
D |-0-0-0-0-0-0-0-0-|-0-0-0-0-0-0-0-0-|-0-0-0-0-0-0-0-0-|-0-0-0-0-0-0-0-0-|-
A |-----------------|-----------------|-----------------|-----------------|-
E |-----------------|-----------------|-----------------|-----------------|-

These are pictures of love as it should be
And this here is life and what's left of it
I've got my dollars, did you bring your dime
Baby, we'll hit the jukebox one last time
One last time


PRE-CHORUS
D  D/A  A           D  D/A  A


REPEAT VERSE

You're skinny dipping, now who is really winning
I've got a feeling I might break some hearts tonight
You know that rain the night is bringing
So come on, let's go back to the start
Let's go back to the start


PRE-CHORUS
D  D/A  A           D  D/A  A


CHORUS
D       A/C#             A
Come on please tear away  
        Em7               E/G#
All the pictures of yesterday
           A       
This right here is now
    A/C#*
And now is what I really want

*1st repeat lick      *2nd repeat lick
e |---------------|    |---------------|
B |-----------9-7-|    |-----------7-9-|
G |---6p4-6/9-----|    |---6p4-6/9-----|
D |---------------|    |---------------|
A |---------------|    |---------------|
E |---------------|    |---------------|


VERSE: (repeat verse riff)
On any other day I wouldn't feel like this
But today the rain can soak me up
Don't mind jumping on rooftops
Setting of car alarms all night
Just feeling like I do right now
Like I do right now


PRE-CHORUS
D  D/A  A           D  D/A  A


CHORUS
D       A/C#             A
Come on please tear away  
        Em7               E/G#
All the pictures of yesterday
           A       
This right here is now
    A/C#*
And now is what I really want

*1st repeat lick      *2nd repeat lick
e |---------------|    |---------------|
B |-----------9-7-|    |-----------7-9-|
G |---6p4-6/9-----|    |---6p4-6/9-----|
D |---------------|    |---------------|
A |---------------|    |---------------|
E |---------------|    |---------------|


OUTRO:
   D                                         Hm
e |-----10-----10---10-|-----10-----10---10-|-----10-----10-----|-----10-----10-----|
B |-7-8----7-8----8----|-7-8----7-8----8----|---7------7------7-|---7------7------7-| 2x
G |--------------------|--------------------|-7------7------7---|-9------9------9---|
D |--------------------|--------------------|-------------------|-------------------|
A |--------------------|--------------------|-------------------|-------------------|
E |--------------------|--------------------|-------------------|-------------------|

CONTINUE TO REPEAT THE RIFF, and follow these chords
D       G       Hm      F#m
D       Hm      F#m     G
D       G       Hm      F#m
D       Hm      F#m     G
D       D       G       G
D       D       G       G

END WITH INTRO RIFF

************************************

| /   slide up
| \   slide down
| h   hammer-on
| p   pull-off
| ~   vibrato
| +   harmonic
| x   Mute note
| b   Bend
| pb  Pre-bend
| br  Bend release
| pbr Pre-bend release
| brb Bend release bend

************************************
Tap to rate this tab
 
# A B C D E F G H I J K L M N O P Q R S T U V W X Y Z