Song name
# A B C D E F G H I J K L M N O P Q R S T U V W X Y Z

Misc Unsigned Bands - Bluebook - Summer Again tab

-----------------------
BLUEBOOK - SUMMER AGAIN
-----------------------

Check out www.bluebookband.net - The official website of Bluebook to play along these tunes!
From the website you can find Bluebook Songbook as well, where you will find more chords and tabs!

CHORD PATTERNS
--------------
A*      54x7xx
D*      x547xx
D       xx0232
G       320033
Em      022000
A       x02220
--------------

INTRO:
e |-----------------|----------------|
B |-----------------|----------------|
G |-----------------|-----0------0---|
D |-----4-------4---|---0---0--0---0-| x4
A |---5---5---5---5-|----------------|
E |-0-------7-------|-5-------3------|


VERSE 1 - Continue Riff 1, and join the 2nd Guitar
e |-----------------|----------------|-----------------|----------------|
B |-----------------|----------------|-----------------|----------------|
G |-----------------|-----0------0---|-----------------|-----0------0---|   
D |-----4-------4---|---0---0--0---0-|-----4-------4---|---0---0--0---0-| 
A |---5---5---5---5-|----------------|---5---5---5---5-|----------------|
E |-0-------7-------|-5-------3------|-0-------7-------|-5-------3------|
  |                 |                |                 |                | 2x	
e |-2-----------3-2-|----------------|-2-----------3-2-|-3/5------------|
B |-3---------------|-3/5------------|-3---------------|----------------|
G |-2---------------|----------------|-2---------------|----------------|
D |-0---------------|----------------|-0---------------|----------------|
A |-----------------|----------------|-----------------|----------------|
E |-----------------|----------------|-----------------|----------------|

This is all I have to say
Please leave a statement at my door
Say what you need
"I don't care, it just doesn't seem to be fair"	


PRE CHORUS
GUITAR 1		
e |-----------------|-----------------|
H |-----------------|-----------------|
G |-----------0-----|-----7-------4---|
D |---0---------0---|---0---0---0---0-|
A |-----0-----------|-----------------|
E |-0-----2-3-----5-|-7-------5-------|
  |                 |                 | 4x
e |-----------------|-----------------|
H |-----------------|-----------------|
G |-7-7-7-7-7-7-7-7-|-7-7-7-7-7-------|
D |-4-4-4-4-4-4-4-4-|-0-0-0-0-4-7-7-7-|
A |-5-5-5-5-5-5-5-5-|-----------------|
E |-----------------|-7-7-7-7-5-5-5-5-|


VERSE (Repeat verse)
There are all these implications
With the people we don't want to know
This here is my final say
To all the deaf ears around me


PRE-CHORUS (Repeat pre-chorus)


PRE-CHORUS 2 (2nd Guitar plays Chords A* = D and D* = G)
A*           
This is not what you need from me
D*
I can give you so much more than this
A*
This is not what you need from me
D*
I can give you so much more than this
A*                D*
Nana nana nannaaa Nana nana nannaaa
A*                D*        A*
Nana nana nannaaa Nana nana nannaaa


CHORUS
A                        Em         
Let's stay out and dream about the nights we never had
G                           D          A
All the lost stories we can find again
A                          Em
Let's think about tomorrow when the sun starts to rise
G                               D         A
Everything is more than we will ever need


REPEAT INTRO 2x


REPEAT VERSE
Another busy day, please hold on
Waiting for something, everything
Wanting to change what I have felt
What I feel slips my mind


REPEAT PRE-CHORUS


PRE-CHORUS 2 (2nd Guitar plays Chords A* = D and D* = G)
A*           
This is not what you need from me
D*
I can give you so much more than this
A*
This is not what you need from me
D*
I can give you so much more than this
A*                D*
Nana nana nannaaa Nana nana nannaaa
A*                D*        A*
Nana nana nannaaa Nana nana nannaaa


CHORUS
A                        Em         
Let's stay out and dream about the nights we never had
G                           D          A
All the lost stories we can find again
A                          Em
Let's think about tomorrow when the sun starts to rise
G                               D         A
Everything is more than we will ever need


REPEAT INTRO and slow down

************************************

| /   slide up
| \   slide down
| h   hammer-on
| p   pull-off
| ~   vibrato
| +   harmonic
| x   Mute note
| b   Bend
| pb  Pre-bend
| br  Bend release
| pbr Pre-bend release
| brb Bend release bend

************************************
Tap to rate this tab
# A B C D E F G H I J K L M N O P Q R S T U V W X Y Z