Song name
# A B C D E F G H I J K L M N O P Q R S T U V W X Y Z

Misc Unsigned Bands - Bluebook - Just Like You tab

------------------------
BLUEBOOK - JUST LIKE YOU
------------------------

Check out www.bluebookband.net - The official website of Bluebook to play along these tunes!
From the website you can find Bluebook Songbook as well, where you will find more chords and tabs!


CHORD PATTERNS
--------------
Em      022000
C       x32000
Am      x02210
G       320033
Cadd9   x32030
Em7     022033
D       xx0232
--------------


INTRO: 
e |--------0-------|--------0-------|----------------|-----------------|
B |----------0-----|----------0-----|----------------|-----------------|
G |------0-----0---|------0---------|----0-----0-----|-0---------------| 2x
D |----0---------0-|----0-----------|------0-----0---|-----9-7bp0-4bp0-|
A |----------------|------------0-5-/-7------7-----7-|---7-------------|
E |-0--------------|-0--------------|----------------|-----------------|


NOTES FOR VERSE:
On Em play following lick
e |-------------|
B |-------------|
G |-------------|
D |-----9-7-4p0-|
A |-5/7---------|
E |-------------|

On C slide to
e |-0--0-0--0---0--0--|
B |-1--1-1-/8---8--8--|
G |-0--0-0--0---0--0--|
D |-2--2-2-/9---9--9--|
A |-3--3-3-/10--10-10-|
E |-------------------|

Em
I find it hard to believe
                                     C
The misfortunes and stories that you tell

These are things that never really happened
Em
I'm having a laugh about it all
                         C
I keep smiling inside of me

We listen but we never believe
Am*                          C*
We never believe that these things could be true

Am* lick            C* lick
e |-------------|  |----------------------|
B |-------------|  |----------------------|
G |-4p5h4p0-2p0-|  |-12-12-12\11-11\9-9\7-|
D |-------------|  |-x--x--x--x---x-x-x-x-|
A |-------------|  |-10-10-10\9---9\7-7\5-|
E |-------------|  |----------------------|

Em
The rudeness of your ways it's hurting
                     C
What do you think of us

It's not normal to believe everything
Em
I've had my fair share of lies
C                                   Am*
Now I'm ready to show you how I feel
                      C*
Oh, and I want you to listen to me


G                                Cadd9
We live, we breathe, we eat, and die like you, just like you
G                                Cadd9
You lie, you trick, you cheat and die like us, just like us
G                                Cadd9
We live, we breathe, we eat, and die like you, just like you
G                                Em7 D  Cadd9
There's nothing different in the way we are


Em
I wanna hear what it's like on that side
                            C
On the greener side of this fence

The side where gold never ends
Em
Where the rain soaks you dry
C                                               Am*
Nothing seems to be wrong, and nothing seems to die
                         C*
When nothing seems to go wrong


G                                Cadd9
We live, we breathe, we eat, and die like you, just like you
G                                Cadd9
You lie, you trick, you cheat and die like us, just like us
G                                Cadd9
We live, we breathe, we eat, and die like you, just like you
G                                Em7 D  Cadd9
There's nothing different in the way we are


HARMONICA SOLO:
Em7     Em7     Em7     Em7 *
G       G       G       G   **
Em7     Em7     Em7     Em7 *
G       G       G       G   **
Em7   D D       Cadd9   Cadd9

   *                     **
e |------------------|  |----------------|
B |------------------|  |----------------|
G |-11/12-12\11-11\9-|  |-12\11-11\9-9\7-|
D |--x-x---x-x---x-x-|  |--x-x---x-x-x-x-|
A |--9/10-10\9---9\7-|  |-10\9---9\7-7\5-|
E |------------------|  |----------------|


REPEAT INTRO


CHORUS 2x
G                                Cadd9
We live, we breathe, we eat, and die like you, just like you
G                                Cadd9
You lie, you trick, you cheat and die like us, just like us
G                                Cadd9
We live, we breathe, we eat, and die like you, just like you
G                                Em7 D  Cadd9
There's nothing different in the way we are


************************************

| /   slide up
| \   slide down
| h   hammer-on
| p   pull-off
| ~   vibrato
| +   harmonic
| x   Mute note
| b   Bend
| pb  Pre-bend
| br  Bend release
| pbr Pre-bend release
| brb Bend release bend

************************************
Tap to rate this tab
 
# A B C D E F G H I J K L M N O P Q R S T U V W X Y Z