Song name
# A B C D E F G H I J K L M N O P Q R S T U V W X Y Z

Misc Unsigned Bands - Bluebook - Too Many Sleepless Nights tab

------------------------------------
BLUEBOOK - TOO MANY SLEEPLESS NIGHTS
------------------------------------

Check out www.bluebookband.net - The official website of Bluebook to play along these tunes!
From the website you can find Bluebook Songbook as well, where you will find more chords and tabs!

CHORD PATTERNS
--------------
D       xx0232
G       320033
Em      022000
A       x02220
F/A#    x132xx
F       133211 (during chorus x032xx)
Gm7     353333
F#m     244222
--------------

INTRO
e |-----------------|------------------|---------------------------|
B |-5-----3---------|------------3-3-3-|-3-3-3-3-3-3-3-3-3-3-3-3-3-|
G |---4-----4-------|------------2-2-2-|-0-0-0-0-0-0-0-0-0-0-0-0-0-|
D |-----0-----0-5/7-|------------0-0-0-|-0-0-0-0-0-0-------0-0-0-0-|
A |-----------------|-4-----5-7\-------|-------------2-2-2---------|
E |-----------------|---5/7------------|-3-3-3-2-2-2-0-0-0-2-2-3-3-|
  |                 |                  |                           | 2x
e |-----------------|------------------|---------------------------|
B |-----------------|------------3-3-3-|-3-3-3-3-3-3-3-3-3-3-3-3-3-|
G |-----------------|------------2-2-2-|-0-0-0-0-0-0-------0-0-0-0-|
D |-----------------|------------0-0-0-|-0-0-0-0-0-0-------0-0-0-0-|
A |-----------------|------------------|-------------2-2-2---------|
E |-----------------|------------------|-3-3-3-2-2-2-0-0-0-2-2-3-3-|

AFTER THIS, REPEAT LAST BAR 4 TIMES AND GO TO VERSE

GUITAR 2 CHORDS
---------------
D        x547xx
G       x1097xx
Em       x754xx
---------------

D                 G
From sunset to sunrise
D                                   G
Distorted chords with lots of laughs
D                        Em
Tonight everybody is here
                      D      A
And we sing anthems of being loved


CHORUS	
                  2x                2x                2x
e |-----------------|-----------------|-----------------|
B |-----------------|-----------------|-----------------|
G |---------2-----2-|---------2-----2-|---------2-----2-|
D |-----3-------3---|-----3-------3---|-----3-------3---|
A |-1-1---1---1-----|-0-0---0---0-----|-----------------|
E |-----------------|-----------------|-3-3---3---3-----|
  |F/A#             |F                |F/G              | 
e |-----------------|-----------------|-----------------|
B |-----------------|-----------------|-----------------|
G |-2-2-2-2-2-2-2-2-|-2-2-2-2-2-2-2-2-|-2-2-2-2-2-2-2-2-|
D |-3-3-3-3-3-3-3-3-|-3-3-3-3-3-3-3-3-|-3-3-3-3-3-3-3-3-|
A |-1-1-1-1-1-1-1-1-|-0-0-0-0-0-0-0-0-|-x-x-x-x-x-x-x-x-|
E |-----------------|-----------------|-3-3-3-3-3-3-3-3-|

F/A#             F
Nights turn into days
F/G                   F              Gm7
There's still time to fight the evil ways
F/A#            F
Keep on keeping on
        F/G                F              Gm7
If this moment lasts we'll make it before long


REPEAT INTRO 2x
INTRO LAST BAR 2x


D                      G
Empty hallways left behind
      D                       G
We'll take over the streets tonight
    D                    Em
And now everybody is gone
                        D  A
I got your number but I got nowhere to go


F/A#             F
Nights turn into nights
        F/G                F                Gm7
History's not planned it's made under these city lights
F/A#            F
Keep on keeping on
        F/G                F              Gm7
If this moment lasts we'll make it before long


F#m   G                F#m
Can I rest my head here?
         Em                F#m
Keep the fire going strong
            G            D
We need the warmth until

A new day is dawning
F#m         G          
This is the party upstairs
F#m     Em               F#m
See you here a year from now
     G                    D
Next week is for sleeping 

Summer's just around the corner


F/A#             F
Nights turn into days
F/G                   F              Gm7
There's still time to fight the evil ways
F/A#            F
Keep on keeping on
        F/G                F              Gm7
If this moment lasts we'll make it before long


OUTRO 4x
   F/A#                                 F
e |----------------|-------------------|----------------|-------------------|
B |----------------|-------------------|----------------|-------------------|
G |--------2p0-2/5-|-(5)-5-------------|--------2p0-2/5-|-(5)-5-------------|
D |----3/5---------|-------7-7-5-5-3-3-|----3/5---------|-------7-7-5-5-3-3-|
A |-1--------------|-------------------|-0--------------|-------------------|
E |----------------|-------------------|----------------|-------------------|

   F/G                                  F                Gm7 
e |----------------|-------------------|----------------|-------------------|
B |----------------|-------------------|----------------|-------------------|
G |--------2p0-2/5-|-(5)-5-------------|--------2p0-2/5-|-(5)-5-------------|
D |----3/5---------|-------7-7-5-5-3-3-|-3--3/5---------|-------7-7-5-5-3-3-|
A |----------------|-------------------|----------------|-------------------|
E |-3--------------|-------------------|----------------|-------------------|

REPLACE LAST BAR OF THE LEAD WITH:
   F                Gm7
e |----------------|---------------------|
B |----------------|---------------------|
G |--------2p0-2/5-|-(5)-5---------------|
D |-3--3/5---------|-------7-7-5-5-3-5-3-|
A |----------------|---------------------|
E |----------------|---------------------|

************************************

| /   slide up
| \   slide down
| h   hammer-on
| p   pull-off
| ~   vibrato
| +   harmonic
| x   Mute note
| b   Bend
| pb  Pre-bend
| br  Bend release
| pbr Pre-bend release
| brb Bend release bend

************************************
Tap to rate this tab
 
# A B C D E F G H I J K L M N O P Q R S T U V W X Y Z