Song name
# A B C D E F G H I J K L M N O P Q R S T U V W X Y Z

Misc Unsigned Bands - Bluebook - I Was Here Five Years Ago tab

BLUEBOOK - I WAS HERE FIVE YEARS AGO
------------------------------------

Check out www.bluebookband.net - The official website of Bluebook to play along these tunes!
From the website you can find Bluebook Songbook as well, where you will find more chords and tabs!


CHORD PATTERNS
--------------
G       320033
D       xx0232
Em7     022033
C       x32010
Am      x02210
--------------

INTRO: 
   ___________________ ___________________ ___________________
        1., 3., 5., 7.|             2., 6.|             4., 8.|
e |-------------------|-------------------|-------------------|
B |-------------------|-------------------|-------------------|
G |---6---6-h-7-7---7-|---4---4-h-6-6---6-|---2---2-h-4-4---0-|
D |-------------------|-------------------|-------------------|
A |-0---0---0-----0---|-0---0---0-----0---|-0---0---0-----0---|
E |-------------------|-------------------|-------------------|
  |Allow Guitar 1 to  | start             |                   | 2x
e |-------------------|-------------------|-------------------|
B |-------------------|-------------------|-------------------|
G |-6-6-6-6-6h7-7-7-7-|-4-4-4-4-4h6-6-6-6-|-2-2-2-2-2h4-4-4-0-|
D |-0-0-0-0-0---0-0-0-|-0-0-0-0-0---0-0-0-|-0-0-0-0-0---0-0-0-|
A |-0-0-0-0-0---0-0-0-|-0-0-0-0-0---0-0-0-|-0-0-0-0-0---0-0-0-|
E |-------------------|-------------------|-------------------|

ENDING FOR THE INTRO RIFF WHEN GOING TO VERSE
e |---------------|
B |---------------|
G |---2---2-------|
D |---------4-2-0-|
A |-0---0---------|
E |---------------|

GUITAR 1 chords are different in verse, they are as follows
G       32x4xx
D       2x02xx
Em7     020030

G                      D
We'll walk a 1000 miles
                         Em7 
I'll call you when I get there
C
If I ever get there
G
Need crowd control
D                   Em7
This place falling apart
C                               G
It's all like it's been for too long


F
In a panopticon
         Am          C
In these familiar surroundings
F
With these faces I miss
          Am   G
Five years and counting


REPEAT INTRO


G                           D
In and out at the same time 
                           Em7
Don't want to lose what we had
C
This is the place I like
G               D
If I leave now
                       Em7
I'll get there in the end
         C                       G
But I'll always be here as well


F
In a panopticon
         Am          C
In these familiar surroundings
F
With these faces I miss
          Am   G
Five years and counting


HARMONICA SOLO
C       Am      G       F  4x


OUTRO
F       Am   C  F       Am   G    C

************************************

| /   slide up
| \   slide down
| h   hammer-on
| p   pull-off
| ~   vibrato
| +   harmonic
| x   Mute note
| b   Bend
| pb  Pre-bend
| br  Bend release
| pbr Pre-bend release
| brb Bend release bend

************************************
Tap to rate this tab
# A B C D E F G H I J K L M N O P Q R S T U V W X Y Z