Song name
# A B C D E F G H I J K L M N O P Q R S T U V W X Y Z

Misc Unsigned Bands - Bluebook - Leave It All Behind tab

------------------------------
BLUEBOOK - LEAVE IT ALL BEHIND
------------------------------

Check out www.bluebookband.net - The official website of Bluebook to play along these tunes!
From the website you can find Bluebook Songbook as well, where you will find more chords and tabs!


GUITAR 1           GUITAR 2 
NO CAPO            CAPO 7 - all chord relative to capo!
CHORD PATTERNS     CHORD PATTERNS
--------------     --------------
G       320033     Hm      022000
Hm      x24432     G       x32030
F#m     244222     Cadd9   x32010
Cadd9   x32030     D       320033
D       xx0232     --------------
A       x02220
E/D     x524xx
E/C#    x424xx
--------------


INTRO GUITAR 2 (capo)
e |-0-----0-----0---|-0-----0-----0---|-0-----0-----0---|-0-----0-----0---|
B |---5-----5-----5-|---5-----5-----5-|---3-----3-----3-|---3-----3-----3-|
G |-----4-----4-----|-----4-----4-----|-----4-----4-----|-----4-----4-----|
D |-----------------|-----------------|-----------------|-----------------|
A |-----------------|-----------------|-----------------|-----------------|
E |-----------------|-----------------|-----------------|-----------------|

   G                                   Hm
e |-0-----0-----0---|-0-----0-----0---|-0-----0-----0---|-0-----0-----0---|
B |---5-----5-----5-|---5-----5-----5-|---3-----3-----3-|---3-----3-----3-|
G |-----4-----4-----|-----4-----4-----|-----4-----4-----|-----4-----4-----|
D |-----------------|-----------------|-----------------|-----------------|
A |-----------------|-----------------|-----------------|-----------------|
E |-----------------|-----------------|-----------------|-----------------|

   G                                   F#m
e |-----------------|-----------------|-----------------|-----------------|
B |-----3-----3-----|-----3-----3-----|-----3-----3-----|-----3-----------|
G |---4-----4-----4-|---4-----4-----4-|---4-----4-----4-|---4---4---------|
D |-5-----5-----5---|-5-----5-----5---|-4-----4-----4---|-4-------4-2-----|
A |-----------------|-----------------|-----------------|-------------5-2-|
E |-----------------|-----------------|-----------------|-----------------|

VERSE
   Hm                Hm                Hm                Hm
e |-----0--0-0-0-0--|-----------------|-----0--0-0-0-0--|-----------------|
B |-----0--0-0-0-0--|-----------------|-----0--0-0-0-0--|-----------------|
G |-----0--0-0-0-0--|-----------------|-----0--0-0-0-0--|-4-4-4-5-5-5-4-4-|
D |-----2--2-2-2-2--|-4-4-4-5-5-5-4-4-|-----2--2-2-2-2--|-x-x-x-x-x-x-x-x-|
A |-----2--2-2-2-2--|-2-2-2-2-2-2-2-2-|-----2--2-2-2-2--|-2-2-2-2-2-2-2-2-|
E |-0---0--0-0-0-0--|-0-0-0-0-0-0-0-0-|-0---0--0-0-0-0--|-0-0-0-0-0-0-0-0-|

Hm
If I was a man on a desert where it never rains
G                           Cadd9
I'd drink your water, and I wouldn't ask
Hm
But what I do, I fight and I blend
   G                              Cadd9
So today my heart's just an empty flask


Hm                                       G
Play a prank on Jesus, make love to your God
                                     Cadd9  
Say what you mean, and mean what you say, everyday
Hm                                            G
You know that you can't un-ring that year old bell
                          Cadd9
So be sure when you say a thing like that


D
But tonight you can do that, everything
              Hm
Just this one night
                     
What would you do, what would you change
                    D
If you had the chance
D                        Hm
But tonight you can do that, everything
          *
Just this one night

*  GUITAR 2 (capo)
e |-----------------|-----------------|---------|
B |-----------------|-----------------|---------|
G |-----------------|-----------------|---------|
D |-----2-4-----2-4-|----2-4------2-4-|-4-2-----|
A |-2-5-----2-5-----|-2-5-----2-5-----|-----5-2-|
E |-----------------|-----------------|---------|
  |GUITAR 1         |                 |         |
e |-----------------|-----------------|---------|
B |-----------------|-----------------|---------|
G |-----------------|-----------------|---------|
D |-----------------|-----------------|---------|
A |-----2-4-----2-4-|-----2-4-----2-4-|-4-2-----|
E |-5-2-----5-2-----|-5-2-----5-2-----|-----5-2-|


Hm
We don't want to leave yet, we still want to stay here
G                        Cadd9
Listening to the radio, waiting for the blue skies
Hm                                                    G
Watching people passing by, wondering what they might say
                          Cadd9
If only they knew as much as we do


D
But tonight you can do that, everything
              Hm
Just this one night
                     
What would you do, what would you change
                    D
If you had the chance
D                        Hm
But tonight you can do that, everything
          *
Just this one night


Hm              A


E/D             E/C# Repeat these chords untill the end with the Lead Guitar

LEAD WITH NO CAPO!
e |----------------|---------------|-----------------|-----------|
B |----------------|---------------|-----------------|-----------|
G |-9--9p7-9p7---7-|-9--9p7---7----|-9--9p7---7--9p7-|---7-------|
D |------------9---|--------9----9-|--------9--------|-9---9-7-5-|
A |----------------|---------------|-----------------|-----------|
E |----------------|---------------|-----------------|-----------|

e |----------------|---------------|-----------------|-----------|
B |----------------|---------------|-----------------|-----------|
G |----------------|---------------|-----------7--9--|---9p7---7-|
D |-7--7p5-7p5---5-|-7--7p5---5----|--5--7--9--------|-9-----9---|
A |------------7---|--------7----7-|-----------------|-----------|
E |----------------|---------------|-----------------|-----------|

e |----------------|---------------|-------------------|---------------|
B |----------------|---------------|--------8-10--8/10-|-8-10-12-10-12-|
G |-9--9p7-9p7---7-|-9--9p7---7----|--7--9-------------|---------------|
D |------------9---|--------9----9-|-------------------|---------------|
A |----------------|---------------|-------------------|---------------|
E |----------------|---------------|-------------------|---------------|

e |-----------------------|---------------------|------------------|----------------------|
B |-12--12p10-12p10----10-|-12--12p10----10-----|-12--12p10----10--|-12p10----12p10----10-|
G |-----------------11----|-----------11-----11-|-----------11-----|-------11-------11----|
D |-----------------------|---------------------|------------------|----------------------|
A |-----------------------|---------------------|------------------|----------------------|
E |-----------------------|---------------------|------------------|----------------------|

e |-------------------|---------------------|----------------|-----------|
B |-10--10p8-10p8---8-|-10--10p8---8-----10-|-10p8---8--10p8-|---8-------|
G |---------------9---|----------9----9-----|------9---------|-9---9-7---|
D |-------------------|---------------------|----------------|---------9-|
A |-------------------|---------------------|----------------|-----------|
E |-------------------|---------------------|----------------|-----------|

e |----------------|---------------|-----------------|--------------|
B |----------------|---------------|-----------------|--------------|
G |-9--9p7-9p7---7-|-9--9p7---7----|-9--9p7---7--9p7-|---7----------|
D |------------9---|--------9----9-|--------9--------|-9---9-7------|
A |----------------|---------------|-----------------|---------9-0--|
E |----------------|---------------|-----------------|--------------|

************************************

| /   slide up
| \   slide down
| h   hammer-on
| p   pull-off
| ~   vibrato
| +   harmonic
| x   Mute note
| b   Bend
| pb  Pre-bend
| br  Bend release
| pbr Pre-bend release
| brb Bend release bend

************************************
Tap to rate this tab
 
# A B C D E F G H I J K L M N O P Q R S T U V W X Y Z