Song name
# A B C D E F G H I J K L M N O P Q R S T U V W X Y Z

Misc Unsigned Bands - Charlie The Unicorn Jason Steele - Put A Banana In Your Ear tab

-----------------------------------------------------------------------------
Put a Banana in your ear - Charlie the unicorn(Jason Steele)
-----------------------------------------------------------------------------
Tabbed by: RusioHardRock

e|------------------------------------------|
B|-10---------------------------------------|
G|---11-11-12-9------9-11------------9------| [A]
D|--------------11-12-----12-9-11-12--11----|
A|---------------------------------------12-|
E|------------------------------------------|

e|---------------------|-----|
B|-10--------------10--|-----|
G|---11-11-12-9--------|-[A]-|
D|-------------11------|-----|
A|---------------12----|-----|
E|---------------------|-----|

e|----------------------|----------------|
B|-10-------------------|-10----------10-|
G|---11-11-12-9---------|---12-9---------|
D|--------------11---12-|--------11------|
A|----------------12----|-----------12---|
E|----------------------|----------------|

e|------------------------------------|--------------|
B|-10-10-10-12-10---------------------|--------------|
G|----------------12-11-12-9-9-9-11-9-|--------------|
D|------------------------------------|-11----9------|
A|------------------------------------|----12---12---|
E|------------------------------------|--------------|

e|-----------------------------|
B|----10-10-10-12-10-----------|
G|-12----------------12-11-12--|  x2
D|-----------------------------|
A|-----------------------------|
E|-----------------------------|

e|-----------------------------------------------------|
B|-------------10--------------------------------------|
G|-9-9-9-11-12----12-11-9----------9-11-12-11-9--------|
D|------------------------12-12-12--------------11-12--|
A|-----------------------------------------------------|
E|-----------------------------------------------------|

*then just play the song a fret higher* the only variation is at the last section.

e|----------------------------------------------------------------------|
B|-----------------11------------------------------------10-13-12-11-10-|
G|--10-10-10-12-13----13-12-10---------10-12-13-12-10-------------------|
D|----------------------------13-13-13----------------12----------------|
A|----------------------------------------------------------------------|
E|----------------------------------------------------------------------|

Hope you like it.
Tap to rate this tab
 
# A B C D E F G H I J K L M N O P Q R S T U V W X Y Z