Song name
# A B C D E F G H I J K L M N O P Q R S T U V W X Y Z

Misc Unsigned Bands - Angels Dont Kill - Moving Castle tab

Editor's Note
=============
This is my first tab...so please bare with me!
This song can be played at any tempo so have fun!

How to Play
===========
Verse 1
Chorus
Verse 2 (2 times)
Chorus
Verse 3
Outro

Verse 1
E|----------------------------------------------------------------3-----|
A|--2---2---------2-----2---------3-----3---------3-----3-----------2---|
D|---2----2---2-----2-----2---2-----2-----2---2-----2-----2---2---------|
G|----------------------------------------------------------------------|
B|----0-----0---0-----0-----0---0-----0-----3---3-----0-----3---0-----0-|
E|----------------------------------------------------------------------|

Verse 1 (Continued)
E|-3---------3-----3---------2-----2---------2------------|
A|---2---2-----2-----2---2-----2-----2---2-----2---2---2--|
D|--------------------------------------------------------|
G|--------------------------------------------------------|
B|-----0---0-----0-----3---0-----0-----3---3-----0---3---0|
E|--------------------------------------------------------|

Chorus
E|---------------------------------3-3-3-3-3-3-3-3-2---2---2-2-2-2-|
A|-2-2-2-2-2-2-2-2-3---3---3-3-3-3-2-2-2-2-2-2-2-2-2---2---2-2-2-2-|
D|-2-2-2-2-2-2-2-2-2---2---2-2-2-2-0-0-0-0-0-0-0-0-0---0---0-0-0-0-|
G|-0-0-0-0-0-0-0-0-0---0---0-0-0-0-0-0-0-0-0-0-0-0-0---0---0-0-0-0-|
B|-0-0-3-3-3-3-0-0-0---0---3-3-0-0-0-0-3-3-3-3-0-0-0---0---3-3-0-0-|
E|-----------------------------------------------------------------|

Verse 2
E|-------------------------------------------------------------------|
A|-3-----3---------3-----3---------2-----2---------2-----2-----2-----|
D|---2-----2---2-----2-----2---2-----2-----2---2-----2-----2---------|
G|-------------------------------------1-----1---1-----1-----1-------|
B|-----1-----3---3-----1-----3---0-----------------------------------|
E|-------------------------------------------------------------------|

Verse 3
E|-3-----3---------3-----3---------2-----2---------2-----2---------|
A|---3-----3---3-----3-----3---3-----2-----2---2-----2-----2---2---|
D|-----------------------------------------------------------------|
G|-----------------------------------------------------------------|
B|-----3-----3---3-----3-----3---3-----2-----2---2-----2-----2---2-|
E|-----------------------------------------------------------------|

Verse 3 (Continued)
E|-3-----3---------3-----3---------5-----5---------7-----7-8-----|
A|---3-----3---3-----3-----3---3-----5-----5---5-----7-------8---|
D|---------------------------------------------------------------|
G|---------------------------------------------------------------|
B|-----3-----3---3-----3-----3---3-----5-----5---5-----7-------8-|
E|---------------------------------------------------------------|

Outro
E|-----------------------------------------------------------------|
A|-0-----0---------0-----0---------3-----3---------3-----3---------|
D|---2-----2---2-----2-----2---2-----2-----2---2-----2-----2---2---|
G|-----------------------------------------------------------------|
B|-----0-----0---0-----0-----0---0-----0-----0---0-----0-----0---0-|
E|-----------------------------------------------------------------|

Outro (Continued)
E|-----------------------------------------------------------------|
A|-2-----2---------2-----2---------3-----3---------3-----3-----0---|
D|---2-----2---2-----2-----2---2-----2-----2---2-----2-----2-------|
G|-------------------------------------------------------------2---|
B|-----0-----0---0-----0-----0---0-----0-----0---0-----0-----0-----|
E|-----------------------------------------------------------------|
Tap to rate this tab
 
# A B C D E F G H I J K L M N O P Q R S T U V W X Y Z