Song name
# A B C D E F G H I J K L M N O P Q R S T U V W X Y Z

Misc Unsigned Bands - Charity Payne - Behind Your Eyes tab

Song: Behind your eyes
Band: Charity Payne
Copyright 2009 Randy Lee Anzaldua
music and lyrics Performed and Written by Randy Lee Anzaldua
tuning
E
B
G
D
A
D

intro:
bass starts

E|---------------------------------------------------|
B|--8^~~--8^~~------------------8^~~--8^~~-----------|
G|-10^~~-10^~~--7-7-7-7-7-7----10^~~-10^~~--7--7--7--|
D|---------------------------------------------------|
A|---------------------------------------------------|
D|---------------------------------------------------|

verse 1:
  Tell me what you can
  Tell me what you see
  Tell me what you feel
E|------------------------------------------------------------------------------------------|
B|------------------------------------------------------------------------------------------|
G|-2---5---2-----7------7-------------------------------------------------------------------| x 3
D|-2---5---2--------------------------------------------------------------------------------|
A|-0---3---0-------0--0---------------------------------------------------------------------|
D|------------------------------------------------------------------------------------------|
  Tell me is this real
E|-------------------------------------------------------------------------------------------|
B|-------------------------------------------------------------------------------------------|
G|-2---5---2-----7------7------7------7------7------7----------------------------------------|
D|-2---5---2---------------------------------------------------------------------------------|
A|-0---3---0-------0--0---0--0---0--0---0--0---0--0------------------------------------------|
D|-------------------------------------------------------------------------------------------|

E|-------------------------------------------------------------------------------------------|
B|-------------------------------------------------------------------------------------------|
G|-------------------------------------------------------------------------------------------|
D|-------------------------------------------------------------------------------------------|
A|-------------------------------------------------------------------------------------------|
D|-------------------------------------------------------------------------------------------|

verse 2:

Somethings about to be
Love is what you see

Finding a dream to untached to yourself,attached to yourself

E|-------------------------------------------------------------------------------------------|
B|-------------------------------------------------------------------------------------------|
G|-2---5---2-----7------7------7------7------7------7----------------------------------------|
D|-2---5---2---------------------------------------------------------------------------------|
A|-0---3---0-------0--0---0--0---0--0---0--0---0--0------------------------------------------|
D|-------------------------------------------------------------------------------------------|

Sometimes you feel like you're dreaming on a cloud that you can see

E|-------------------------------------------------------------------------------------------|
B|-------------------------------------------------------------------------------------------|
G|-2---5---2-----7------7------7------7------7------7----------------------------------------|
D|-2---5---2---------------------------------------------------------------------------------|
A|-0---3---0-------0--0---0--0---0--0---0--0---0--0------------------------------------------|
D|-------------------------------------------------------------------------------------------|

E|-------------------------------------------------------------------------------------------|
B|-------------------------------------------------------------------------------------------|
G|-------------------------------------------------------------------------------------------|
D|-------------------------------------------------------------------------------------------|
A|-------------------------------------------------------------------------------------------|
D|-------------------------------------------------------------------------------------------|

E|-------------------------------------------------------------------------------------------|
B|-------------------------------------------------------------------------------------------|
G|-------------------------------------------------------------------------------------------|
D|-------------------------------------------------------------------------------------------|
A|-------------------------------------------------------------------------------------------|
D|-------------------------------------------------------------------------------------------|

E|-------------------------------------------------------------------------------------------|
B|-------------------------------------------------------------------------------------------|
G|-------------------------------------------------------------------------------------------|
D|-------------------------------------------------------------------------------------------|
A|-------------------------------------------------------------------------------------------|
D|-------------------------------------------------------------------------------------------|

E|-------------------------------------------------------------------------------------------|
B|-------------------------------------------------------------------------------------------|
G|-------------------------------------------------------------------------------------------|
D|-------------------------------------------------------------------------------------------|
A|-------------------------------------------------------------------------------------------|
D|-------------------------------------------------------------------------------------------|

chorus 1:

E|-------------------------------------------------------------------------------------------|
B|-------------------------------------------------------------------------------------------|
G|-------------------------------------------------------------------------------------------|
D|-------------------------------------------------------------------------------------------|
A|-------------------------------------------------------------------------------------------|
D|-------------------------------------------------------------------------------------------|

verse 2:
E|-------------------------------------------------------------------------------------------|
B|-------------------------------------------------------------------------------------------|
G|-------------------------------------------------------------------------------------------|
D|-------------------------------------------------------------------------------------------|
A|-------------------------------------------------------------------------------------------|
D|-------------------------------------------------------------------------------------------|

Tell me what you can
Tell me what you see
Tell me what you feel
Tell me is this real

Just behind your eyes you can see, see everything that you want to be
Just behind your eyes, your eyes
Just tell me what you can be and what you can see
Just close your eyes, just close your eyes

Somethings about to be
Love is what you see
Finding a dream to untached to yourself,attached to yourself
Sometimes you feel like you're dreaming on a cloud that you can see

Just behind your eyes you can see, see everything you want to be
Just behind your eyes, your eyes
Just tell me what you can be and what you can see
Just close your eyes, Just close your eyes

Don't you feel everything
Just to be a part of everything
Just slow down your heart just a bit, just so I feel it now
Just tell me what you say and I can see everything

Just behind your eyes you can see, see everything you want to be
Just behind your eyes, your eyes
Just tell me what you can be and what you can see
Just close your eyes, Just close your eyes
Tap to rate this tab
# A B C D E F G H I J K L M N O P Q R S T U V W X Y Z