Song name
# A B C D E F G H I J K L M N O P Q R S T U V W X Y Z

Misc Unsigned Bands - The In-class - Let It Loose tab

                  Wing Man
                Let It Loose
     Words by Troy Hunt, Music by Marki Thompson


Intro:(clean)
                                  X2
  C            E          G            D                 B          G A D 
e-------------------------------3-4-3------2-2-3p2-2----------------3---2-|
B----1-4-1---------------------0-----0----3----------3--------------0-2-3-|
G---0------0-------1-4-1------0-------0--2-------------2----4-6-4---0-2-2-|
D--2---------2----2-----2----0----------0------------------4--------0-2-0-|
A-3--------------2-------2--2-----------------------------2---------2-0---|
E---------------0----------3----------------------------------------3-----|

 On 3rd Time
e-------------------------------3-4-3------2-2-3p2-2----------------|
B----1-4-1---------------------0-----0----3----------3--------------|
G---0------0-------1-4-1------0-------0--2-------------2----4-6-4v==|
D--2---------2----2-----2----0----------0------------------4--------|
A-3--------------2-------2--2-----------------------------2---------|
E---------------0----------3----------------------------------------|

-Bass Part 

      
Main Riff:Distortion 
e----------------------------|
B----------------------------|
G----------------------------|
D------------7--7-5----------|
A---12\-------------7p5p4p0--|
E--------5-5-----------------|

e------------|--------------------|
B------------|--------------------|
G------------|--------------------|
D--5-5-7-7-7-|----------------7---|Main Riff X2
A--3-3-5-5-5-|--9-9-----------5-7-|
E------------|--7-7-------------5-|

Pre-Chorus:Distrotion
e--------------------------------------------|
B--------------------------------------------|
G--------------------------------------------|
D---1010101010101012-12-12-12-12-12-12-12----|
A---8-8-8-8-8-8-8-10-10-10-10-10-10-10-10----|
E--------------------------------------------|

Chorus: Distortion
e-------------------------------------------------|
B-------------------------------------------------|
G-------------------------------------------------|
D--7-7--77-7-5-5--55-55--------------------5h7----|
A--5-5--55-5-3-3--33-335-5-55-5-5-5-5-55------3h5-|
E----------------------3-3-33-3-3-3-3-33----------|


-Solo

Bridge: Clean
e-----------------------------------------------------------------|
B-8-8-8-8-8-8-8-8-5-5-5-5-5-5-5-5-7-7-7-7-7-7-7-7-4-4-4-4-4-4-4-4-|
G-9-9-9-9-9-9-9-9-6-6-6-6-6-6-6-6-8-8-8-8-8-8-8-8-5-5-5-5-5-5-5-5-|
D-9-9-9-9-9-9-9-9-6-6-6-6-6-6-6-6-8-8-8-8-8-8-8-8-5-5-5-5-5-5-5-5-|
A-7-7-7-7-7-7-7-7-4-4-4-4-4-4-4-4-6-6-6-6-6-6-6-6-3-3-3-3-3-3-3-3-|
E-----------------------------------------------------------------|

Bridge: Distortion
e---------------------------------|
B---------------------------------|
G-5-5-5-5-5-5-5-5-5-7-7-7-7-7-7-7-|
D-5-5-5-5-5-5-5-5-5-7-7-7-7-7-7-7-|Pre-Chorus - Chorus X12 - Bass Solo
A-3-3-3-3-3-3-3-3-5-5-5-5-5-5-5-5-|
E---------------------------------|


 markel-11@hotmail.com
Tap to rate this tab
# A B C D E F G H I J K L M N O P Q R S T U V W X Y Z