Song name
# A B C D E F G H I J K L M N O P Q R S T U V W X Y Z

Misc Unsigned Bands - No Label - The River tab

 Its in 12/8 time (equals 4 triplets per measure). Key of A Minor.


           Am           EM               Am           EM

  e|-----------------------------|-----------------------------|
  B|--------1--------------------|--------1--------------------|
  G|------2---2----------1-------|------2---2----------1-------|
  D|----2-------2------2---2-----|----2-------2------2---2-----|
  A|--0--------------2-------2---|--0--------------2-------2---|
  E|---------------0-------------|---------------0-------------|


           Dm           Am               EM           Am

  e|--------1--------------------|-----------------------------|
  B|------3---3----------1-------|---------------------1-------|
  G|----2-------2------2---2-----|--------1----------2---2-----|
  D|--0--------------2-------2---|------2---2------2-------2---|
  A|---------------0-------------|----2-------2--0-------------|
  E|-----------------------------|--0--------------------------|


     Am  Am  EM  EM    Am  Am  EM  EM    Dm  Dm  Am  Am    EM  EM  Am  Am

  e|--0---0---0---0--|--0---0---0---0--|--1---1---0---0--|--0---0---0---0--|
  B|--1---1---0---0--|--1---1---0---0--|--3---3---1---1--|--0---0---1---1--|
  G|--2---2---1---1--|--2---2---1---1--|--2---2---2---2--|--1---1---2---2--|
  D|--2---2---2---2--|--2---2---2---2--|--0---0---2---2--|--2---2---2---2--|
  A|--0---0---2---2--|--0---0---2---2--|----------0---0--|--2---2---0---0--|
  E|----------0---0--|----------0---0--|-----------------|--0---0----------|


     Am  Am  EM  EM    Am  Am  EM  EM    Dm  Dm  Am  Am    EM  EM  Am  Am

  e|--0---0---0---0--|--0---0---0---0--|--1---1---0---0--|--0---0---0---0--|
  B|--1---1---0---0--|--1---1---0---0--|--3---3---1---1--|--0---0---1---1--|
  G|--2---2---1---1--|--2---2---1---1--|--2---2---2---2--|--1---1---2---2--|
  D|--2---2---2---2--|--2---2---2---2--|--0---0---2---2--|--2---2---2---2--|
  A|--0---0---2---2--|--0---0---2---2--|----------0---0--|--2---2---0---0--|
  E|----------0---0--|----------0---0--|-----------------|--0---0----------|
 

     Dm  Dm  FM  FM    Am  Am  EM  EM    Dm  Dm  FM  FM    Am  Am  EM  EM

  e|--1---1---5---5--|--0---0---0---0--|--1---1---5---5--|--0---0---0---0--|
  B|--3---3---6---6--|--1---1---0---0--|--3---3---6---6--|--1---1---0---0--|
  G|--2---2---5---5--|--2---2---1---1--|--2---2---5---5--|--2---2---1---1--|
  D|--0---0----------|--2---2---2---2--|--0---0----------|--2---2---2---2--|
  A|-----------------|--0---0---2---2--|-----------------|--0---0---2---2--|
  E|-----------------|----------0---0--|-----------------|----------0---0--|


     Dm  Dm  FM  FM    Am  Am  EM  EM    Dm  Dm  FM  FM    Am  Am  BM  BM

  e|--1---1---5---5--|--0---0---0---0--|--1---1---5---5--|--0---0---7---7--|
  B|--3---3---6---6--|--1---1---0---0--|--3---3---6---6--|--1---1---4---4--|
  G|--2---2---5---5--|--2---2---1---1--|--2---2---5---5--|--2---2---4---4--|
  D|--0---0----------|--2---2---2---2--|--0---0----------|--2---2----------|
  A|-----------------|--0---0---2---2--|-----------------|--0---0----------|
  E|-----------------|----------0---0--|-----------------|-----------------|


           Am           EM               Am           EM

  e|-----------------------------|-----------------------------|
  B|--------1--------------------|--------1--------------------|
  G|------2---2----------1-------|------2---2----------1-------|
  D|----2-------2------2---2-----|----2-------2------2---2-----|
  A|--0--------------2-------2---|--0--------------2-------2---|
  E|---------------0-------------|---------------0-------------|


           Dm           Am               EM           Am

  e|--------1--------------------|-----------------------------|
  B|------3---3----------1-------|---------------------1-------|
  G|----2-------2------2---2-----|--------1----------2---2-----|
  D|--0--------------2-------2---|------2---2------2-------2---|
  A|---------------0-------------|----2-------2--0-------------|
  E|-----------------------------|--0--------------------------|
Tap to rate this tab
# A B C D E F G H I J K L M N O P Q R S T U V W X Y Z