Song name
# A B C D E F G H I J K L M N O P Q R S T U V W X Y Z

Misc Unsigned Bands - Tengen Toppa Gurren Lagann - Sorairo Days tab

--------------------------------------------------------------------------------------------------
	           Tengen Toppa Gurren Lagann - Sora iro Days
--------------------------------------------------------------------------------------------------
Tabbed by: Salvado Jazzkat
Email: SalvadoJazzkat@gmail.com

 
Tuning: Standard- E,A,D,G,B,E



E|--------------------------------------------------------------|
B|-----7-----7-7-----------------7---7-----7-7------------------|
G|-------9-9-----9-9-9-7-7---7-9---9---9-9-----9-9-9-7-9-7-11---| x2
D|-------------------------7------------------------------------|
A|--------------------------------------------------------------|
E|--------------------------------------------------------------|


E|-------------------------------------------------------------------------------|
B|-------10-10-----------7-8-7-----10-8-7-8-7-----10-----------7-8-7-----7-8-8---|
G|-----7-------7-7---7-9-------9-7------------9-7----7-7---7-9-------9-7---------| x1
D|-----------------7-------------------------------------7-----------------------|
A|-------------------------------------------------------------------------------|
E|-------------------------------------------------------------------------------|


E|------------------------------10-9-----------------------------------------|
B|-------10-8-7-8-10---7-8-10-7------10-7-8-10-10-10-10-10-8-7-8---------7---|
G|-----7-------------7-------------------------------------------9-9-7-9-----| x1
D|---------------------------------------------------------------------------|
A|---------------------------------------------------------------------------|
E|---------------------------------------------------------------------------|


E|------------------------------10-9------------------------------|
B|-------10-8-7-8-10---7-8-10-7------10-7-8-10-10-10-10-11-7-11---|
G|-----7-------------7--------------------------------------------| x1
D|----------------------------------------------------------------|
A|----------------------------------------------------------------|
E|----------------------------------------------------------------|


E|-----9-9-7-9-10-------------------------------------|
B|----------------10-8-7-8-10-----10-7-8-10-------7---|
G|----------------------------7-7-----------7-7-9-----| x1
D|----------------------------------------------------|
A|----------------------------------------------------|
E|----------------------------------------------------|




Enjoy.
Tap to rate this tab
# A B C D E F G H I J K L M N O P Q R S T U V W X Y Z