Song name
# A B C D E F G H I J K L M N O P Q R S T U V W X Y Z

Misc Unsigned Bands - Joshua Michael Robinson - Worth The Wait chords

Highlighted       Show chord diagrams
-------------------------------------------------------------------------------
		     Worth the Wait - Joshua Michael Robinson
-------------------------------------------------------------------------------
Tabbed by: Michael
Email: excelsior205@aol.com

Tuning: Standard EADGBe


Chords
Gmaj7:  354433
Am:     577555
D:      x57775
G:      355433
C:      x35553
Em:     x79987
D7:     x57575
Cmaj7:  x35453



Gmaj7                              Am
Hold on, there's a lot of things I know from  
      D                  G
bein' so young and bein' alone
    Gmaj7                             Am
And this might be too straight but it feels right 
                      D                      G
I know I really never felt quite like this before
        Am                  C
So what is it that keeps me away from sleep? 
     Em                D7
Your voice tuned to my ear
       Am                   C 
And as it's getting late, I picture your face 
           Em            D7
and you're sitting right here
                Am                                      D7
'Cause I put my hope in all the things that'll make you mine 
      Am                                         D7
And I know it's easy to see I've got a lot on my mind 
         Am                      D7
I put my faith in you a thousand miles away 
      Am                                D7
Baby, I won't move if you'll promise me the same 
      Em      D7        Cmaj7
no no no no no no no no no no no no 
      Em      D7        Cmaj7
no no no no no no no no no no no no 
D7                         Gmaj7
   You're worth the wait

    Gmaj7               Am                  D                        C
e|------------------------------------------------------------------------|
B|----------------------------------------------------------------3-------|
G|-------------------0h2/4~~\2-2p0h2-----0h2/4\2~-2p0-2/4-2-0-2/4---4\2~~-|
D|--0h2~~0-------0h2-----------------0h2-------------2--------------------|
A|--------2p0h2-----------------------------------------------------------|
E|------------------------------------------------------------------------|


             Gmaj7                Am                     D                 
e|-------------------------------------------------------3~----------3/5---|
B|--------------------------------3-0-------3-5-5p3p0h3-5---5p3p0h3-5------|
G|--2p0------------------------0h2-----4p2h4-------------------------------|
D|-----2-2~--0h2~0----------0h2--------------------------------------------|
A|-----------------2p0h2-0h2-----------------------------------------------|
E|-------------------------------------------------------------------------|
              C
e|--3-5/7-10-5~~-3-3-3h5-5-5--|
B|----------------------------|
G|----------------------------|
D|----------------------------|
A|----------------------------|
E|----------------------------|

      Em      D7        Cmaj7
no no no no no no no no no no no no 
      Em      D7        Cmaj7
no no no no no no no no no 
D7                         Gmaj7
   Don't move, Amanda Rae


************************************

| /   slide up
| \   slide down
| h   hammer-on
| p   pull-off
| ~   let ring
| +   harmonic
| x   Mute note
| b   Bend
| pb  Pre-bend
| br  Bend release
| pbr Pre-bend release
| brb Bend release bend

************************************
Tap to rate this tab
 
# A B C D E F G H I J K L M N O P Q R S T U V W X Y Z