Song name
# A B C D E F G H I J K L M N O P Q R S T U V W X Y Z

Misc Unsigned Bands - The Jim Jims - 80s Love tab

-------------------------------------------------------------------------------
			     80's Love - the jim jims	
-------------------------------------------------------------------------------
Tabbed by: Cmurder81	
Email:fokkerc@yahoo.com	

This the guitar part for what Chris plays.

Tuning: EADGBE


PART 1

e|--------------------------------|-----------------------------------------|
B|--------------------------------|-----------------------------------------|
G|--------------------------------|----------------------------11-----------|
D|--------------------------------|-----------------------------------------|
A|--------------------------------|-----------------------------------------|
E|--15--14--12--10--12-------7----|--15--14--12--10--12--------10-----------|

PART 2  "I Met You..."

Gentle Strum pattern

e|------------------------------|------------------------|
B|------------------------------|------------------------|
G|--11----11--11----11--11--11--|--6----6--6----6--6--6--|
D|------------------------------|------------------------|
A|------------------------------|------------------------|
E|--10----10--10----10--10--10--|--5----5--5----5--5--5--|

PART 3

Lead 1

e|-------------------------------------|
B|-------------------------------------|
G|-------------------------------------|
D|-----12--11--------------------------|
A|--9----------12----------9-10-9--12--|
E|-----------------12--10--------------|

PART 4

BRIDGE "I Don't Care About..."

e|---------------------------------------------------------------------------------|
B|---------------------------------------------------------------------------------|
G|---------------------------------------------------------------------------------|
D|---------------------------------------------------------------------------------|   X 2
A|---------------------------------------------------------------------------------|
E|-14-14-14-14-14-14-14-14-14-14-14-14-12-12-10-10-7-7-7-7-7-7-7-7-7-7-7-7-7-7-7-7-|

e|-------------------------------------------------------------------------------------|
B|-------------------------------------------------------------------------------------|
G|-------------------------------------------------------------------------------------|
D|-------------------------------------------------------------------------------------|   X 2
A|-------------------------------------------------------------------------------------|
E|-14-14-14-14-14-14-14-14-14-14-14-14-17-17-17-17-15-15-15-15-15-15-15-15-15-15-15-15-|

e|---------------------------------------------------------------------------------|
B|---------------------------------------------------------------------------------|
G|---------------------------------------------------------------------------------|
D|---------------------------------------------------------------------------------|  X 2
A|---------------------------------------------------------------------------------|
E|-14-14-14-14-14-14-14-14-14-14-14-14-12-12-10-10-7-7-7-7-7-7-7-7-7-7-7-7-7-7-7-7-|

PART 5

Lead Outro

e|----------9--------------------9----10--9-----------------------------10----14--------------|
B|------------10-9------------10------------10--------10-11-10----12-10-------------12--------|
G|-9----11---------12-11---12------------------12--12----------12----------------14----12--11-|
D|--------------------------------------------------------------------------------------------|
A|--------------------------------------------------------------------------------------------|
E|--------------------------------------------------------------------------------------------|

e|-----------------------------------|-------10-------------10-----------------------------------|
B|------------------------14--12--10-|----------10-------------10----------14----------14--------|
G|-11-12--14----11-12--14------------|----11-------11----11-------11----12----12----12----12-----|
D|-----------------------------------|-12-------------12-------------14----------14----------14--|
A|-----------------------------------|-----------------------------------------------------------|
E|-----------------------------------|-----------------------------------------------------------|


ARRANGEMENT:

PART 1
PART 2
PART 1
PART 3
PART 2
PART 4
PART 1
PART 2
PART 3
PART 5 - Repeat last section of solo twice ending on single strum of D chord at 10th fret

************************************

| /   slide up
| \   slide down
| h   hammer-on
| p   pull-off
| ~   vibrato
| +   harmonic
| x   Mute note
| b   Bend
| pb  Pre-bend
| br  Bend release
| pbr Pre-bend release
| brb Bend release bend

************************************
Tap to rate this tab
 
# A B C D E F G H I J K L M N O P Q R S T U V W X Y Z