Song name
# A B C D E F G H I J K L M N O P Q R S T U V W X Y Z

Misc Unsigned Bands - Dilemma Uncovered - Its Not That Hard tab

-------------------------------------------------------------------------------
		      IT'S NOT THAT HARD - Dilemma Uncovered 
-------------------------------------------------------------------------------
Music by:Chris Manns, Dominic Manns, Ben Highlander
(myspace.com/dilemmauncovered)

Tabbed by: Caleb Severn


Tuning: Standard (EADGBe)


INTRO (parts here with 2 guitars are almost all stacatto notes)

e|------7---7---7---7---7---7---9---9---7---7---7---7---7---7---9---9--------|\
B|------7---7---7---7---7---7---7---7---7---7---7---7---7---7---7---7--------| \
G|---------------------------------------------------------------------------|  \
D|---------------------------------------------------------------------------|   \
A|---------------------------------------------------------------------------|    \
E|---------------------------------------------------------------------------|     \
                                                                                    | 2 Guitars
e|---------------------------------------------------------------------------|     /
B|---------------------------------------------------------------------------|    /
G|------4---4---4---4---4---4---6---6---------------------------6---6--------|   /
D|------4---4---4---4---4---4---6---6---4---4---4---4---4---4---6---6--------|  /
A|------2---2---2---2---2---2---4---4---4---4---4---4---4---4---4---4--------| /
E|--------------------------------------2---2---2---2---2---2----------------|/



e|------7---7---7---7---7---7---9---9---7---7---7---7---6~------6~-----------|\
B|------7---7---7---7---7---7---7---7---7---7---7---7---7~------7~-----------| \
G|---------------------------------------------------------------------------|  \
D|---------------------------------------------------------------------------|   \
A|---------------------------------------------------------------------------|    \
E|---------------------------------------------------------------------------|     \
                                                                                    | 2 Guitars
e|---------------------------------------------------------------------------|     /
B|---------------------------------------------------------------------------|    /
G|------------------------------6---6----------------------------------------|   /
D|------6---6---6---6---6---6---6---6---2---2---2---2---2-------2------------|  /
A|------6---6---6---6---6---6---4---4---2---2---2---2---2-------2------------| /
E|------4---4---4---4---4---4-----------0---0---0---0---0-------0------------|/



e|------7---7---7---7---7---7---9---9---7---7---7---7---7---7---9---9--------|\
B|------7---7---7---7---7---7---7---7---7---7---7---7---7---7---7---7--------| \
G|---------------------------------------------------------------------------|  \
D|---------------------------------------------------------------------------|   \
A|---------------------------------------------------------------------------|    \
E|---------------------------------------------------------------------------|     \
                                                                                    | 2 Guitars
e|---------------------------------------------------------------------------|     /
B|---------------------------------------------------------------------------|    /
G|------4---4---4---4---4---4---6---6---------------------------6---6--------|   /
D|------4---4---4---4---4---4---6---6---4---4---4---4---4---4---6---6--------|  /
A|------2---2---2---2---2---2---4---4---4---4---4---4---4---4---4---4--------| /
E|--------------------------------------2---2---2---2---2---2----------------|/



e|------7---7---7---7---7---7---9---9---7---7---7---7---6~------6~-----------|\
B|------7---7---7---7---7---7---7---7---7---7---7---7---7~------7~-----------| \
G|---------------------------------------------------------------------------|  \
D|---------------------------------------------------------------------------|   \
A|---------------------------------------------------------------------------|    \
E|---------------------------------------------------------------------------|     \
                                                                                    | 2 Guitars
e|---------------------------------------------------------------------------|     /
B|---------------------------------------------------------------------------|    /
G|--------------------------6---6--------------------------------------------|   /
D|------6---6---6---6---6---6---6---6---2---2---2---2---2-------2------------|  /
A|------6---6---6---6---6---4---4---6---2---2---2---2---2-------2------------| /
E|------4---4---4---4---4-----------4---0---0---0---0---0-------0------------|/


e|---------------------------------------------------------------------------|
B|---------------------------------------------------------------------------|
G|------4---4---4---4---4---4---6-6-6-6---------------------------6-6-6-6----|
D|------4---4---4---4---4---4---x-x-x-x---4---4---4---4---4---4---x-x-x-x----|
A|------2---2---2---2---2---2---4-4-4-4---4---4---4---4---4---4---4-4-4-4----|
E|----------------------------------------2---2---2---2---2---2--------------|


e|---------------------------------------------------------------------------|
B|---------------------------------------------------------------------------|
G|------------------------------6-6-6-6---------------9---9---8---6---4---4--|
D|------6---6---6---6---6---6---x-x-x-x---2---2---2---x---x---x---x---x---x--|
A|------6---6---6---6---6---6---4-4-4-4---2---2---2---7---7---6---4---2---2--|
E|------4---4---4---4---4---4-------------0---0---0--------------------------|


e|---------------------------------------------------------------------------|
B|---------------------------------------------------------------------------|
G|------4---4---4---4---4---4---6-6-6-6---------------------------6-6-6-6----|
D|------4---4---4---4---4---4---x-x-x-x---4---4---4---4---4---4---x-x-x-x----|
A|------2---2---2---2---2---2---4-4-4-4---4---4---4---4---4---4---4-4-4-4----|
E|----------------------------------------2---2---2---2---2---2--------------|


e|---------------------------------------------------------------------------|
B|---------------------------------------------------------------------------|
G|------------------------------6-6-6-6---------------9---9---8---6---4---4--|
D|------6---6---6---6---6---6---x-x-x-x---2---2---2---x---x---x---x---x---x--|
A|------6---6---6---6---6---6---4-4-4-4---2---2---2---7---7---6---4---2---2--|
E|------4---4---4---4---4---4-------------0---0---0--------------------------|




VERSE (stacatto as well, upstrum these ones)

e|------2---2---2---2--------------------------------------------------------|
B|------4---4---4---4--------------------------------------------------------|
G|------4---4---4---4---3---3---3---3---4---4---4---4---1---1---1---1--------|
D|------4---4---4---4---4---4---4---4---6---6---6---6---2---2---2---2--------|
A|------2---2---2---2---4---4---4---4---6---6---6---6---2---2---2---2--------|
E|----------------------2---2---2---2---4---4---4---4---0---0---0---0--------|

e|------2---2---2---2--------------------------------------------------------|
B|------4---4---4---4--------------------------------------------------------|
G|------4---4---4---4---3---3---3---3---4---4---4---4---1---1---1---1--------|
D|------4---4---4---4---4---4---4---4---6---6---6---6---2---2---2---2--------|
A|------2---2---2---2---4---4---4---4---6---6---6---6---2---2---2---2--------|
E|----------------------2---2---2---2---4---4---4---4---0---0---0---0--------|




PRE-CHORUS

e|---------------------------------------------------------------------------|\
B|---------------------------------------------------------------------------| \
G|---4-4-3-3-4-4-3-3-4-4-3-3-4-4-3-3-4-4-3-3-4-4-3-3-4-4-3-3-4-4-3-3---------|  \
D|---x-x-x-x-x-x-x-x-x-x-x-x-x-x-x-x-x-x-x-x-x-x-x-x-x-x-x-x-x-x-x-x---------|   \
A|---2-2-2-2-2-2-2-2-2-2-2-2-2-2-2-2-2-2-2-2-2-2-2-2-2-2-2-2-2-2-2-2---------|    \
E|---------------------------------------------------------------------------|     \
                                                                                    | 2 Guitars
e|---------------------------------------------------------------------------|     /
B|---------------------------------------------------------------------------|    /
G|-----4---------------------------------------------------------------------|   /
D|-----4---------------4---------------6---------------2---------------------|  /
A|-----2---------------4---------------6---------------2---------------------| /
E|---------------------2---------------4---------------0---------------------|/

e|---------------------------------------------------------------------------|\
B|---------------------------------------------------------------------------| \
G|---4-4-3-3-4-4-3-3-4-4-3-3-4-4-3-3-4-4-3-3-4-4-3-3-4-4---------------------|  \
D|---x-x-x-x-x-x-x-x-x-x-x-x-x-x-x-x-x-x-x-x-x-x-x-x-x-x---------------------|   \
A|---2-2-2-2-2-2-2-2-2-2-2-2-2-2-2-2-2-2-2-2-2-2-2-2-2-2---------------------|    \
E|---------------------------------------------------------------------------|     \
                                                    P.M......................       | 2 Guitars
e|---------------------------------------------------------------------------|     /
B|---------------------------------------------------------------------------|    /
G|-----4---------------------------------------------------------------------|   /
D|-----4---------------4---------------6---------------2---------------------|  /
A|-----2---------------4---------------6---------------2---------------------| /
E|---------------------2---------------4---------------0--0--0--0--0--0--0--0|/




CHORUS

e|---------------------------------------------------------------------------|
B|---------------------------------------------------------------------------|
G|----4-4-4-4-4-4-4-4--------------------------------------------------------|
D|----4-4-4-4-4-4-4-4-4-4-4-4-4-4-4-4-6-6-6-6-6-6-6-6-2-2-2-2-2-2-2-2--------|
A|----2-2-2-2-2-2-2-2-4-4-4-4-4-4-4-4-6-6-6-6-6-6-6-6-2-2-2-2-2-2-2-2--------|
E|--------------------2-2-2-2-2-2-2-2-4-4-4-4-4-4-4-4-0-0-0-0-0-0-0-0--------|

                                                                  P.M........
e|---------------------------------------------------------------------------|
B|---------------------------------------------------------------------------|
G|-4-4-4-4-4-4-4-4-----------------------------------------------------------|
D|-4-4-4-4-4-4-4-4-4-4-4-4-4-4-4-4-6-6-6-6-6-6-6-6-2-2-2-2-2-2-2-2-----------|
A|-2-2-2-2-2-2-2-2-4-4-4-4-4-4-4-4-6-6-6-6-6-6-6-6-2-2-2-2-2-2-2-2-----------|
E|-----------------2-2-2-2-2-2-2-2-4-4-4-4-4-4-4-4-0-0-0-0-0-0-0-0--00000000-|




VERSE (stacatto again, upstrum)

e|------2---2---2---2--------------------------------------------------------|
B|------4---4---4---4--------------------------------------------------------|
G|------4---4---4---4---3---3---3---3---4---4---4---4---1---1---1---1--------|
D|------4---4---4---4---4---4---4---4---6---6---6---6---2---2---2---2--------|
A|------2---2---2---2---4---4---4---4---6---6---6---6---2---2---2---2--------|
E|----------------------2---2---2---2---4---4---4---4---0---0---0---0--------|

e|------2---2---2---2--------------------------------------------------------|
B|------4---4---4---4--------------------------------------------------------|
G|------4---4---4---4---3---3---3---3---4---4---4---4---1---1---1---1--------|
D|------4---4---4---4---4---4---4---4---6---6---6---6---2---2---2---2--------|
A|------2---2---2---2---4---4---4---4---6---6---6---6---2---2---2---2--------|
E|----------------------2---2---2---2---4---4---4---4---0---0---0---0--------|




PRE-CHORUS

e|---------------------------------------------------------------------------|\
B|---------------------------------------------------------------------------| \
G|---4-4-3-3-4-4-3-3-4-4-3-3-4-4-3-3-4-4-3-3-4-4-3-3-4-4-3-3-4-4-3-3---------|  \
D|---x-x-x-x-x-x-x-x-x-x-x-x-x-x-x-x-x-x-x-x-x-x-x-x-x-x-x-x-x-x-x-x---------|   \
A|---2-2-2-2-2-2-2-2-2-2-2-2-2-2-2-2-2-2-2-2-2-2-2-2-2-2-2-2-2-2-2-2---------|    \
E|---------------------------------------------------------------------------|     \
                                                                                    | 2 Guitars
e|---------------------------------------------------------------------------|     /
B|---------------------------------------------------------------------------|    /
G|-----4---------------------------------------------------------------------|   /
D|-----4---------------4---------------6---------------2---------------------|  /
A|-----2---------------4---------------6---------------2---------------------| /
E|---------------------2---------------4---------------0---------------------|/

e|---------------------------------------------------------------------------|\
B|---------------------------------------------------------------------------| \
G|---4-4-3-3-4-4-3-3-4-4-3-3-4-4-3-3-4-4-3-3-4-4-3-3-4-4---------------------|  \
D|---x-x-x-x-x-x-x-x-x-x-x-x-x-x-x-x-x-x-x-x-x-x-x-x-x-x---------------------|   \
A|---2-2-2-2-2-2-2-2-2-2-2-2-2-2-2-2-2-2-2-2-2-2-2-2-2-2---------------------|    \
E|---------------------------------------------------------------------------|     \
                                                    P.M......................       | 2 Guitars
e|---------------------------------------------------------------------------|     /
B|---------------------------------------------------------------------------|    /
G|-----4---------------------------------------------------------------------|   /
D|-----4---------------4---------------6---------------2---------------------|  /
A|-----2---------------4---------------6---------------2---------------------| /
E|---------------------2---------------4---------------0--0--0--0--0--0--0--0|/



CHORUS

e|---------------------------------------------------------------------------|
B|---------------------------------------------------------------------------|
G|----4-4-4-4-4-4-4-4--------------------------------------------------------|
D|----4-4-4-4-4-4-4-4-4-4-4-4-4-4-4-4-6-6-6-6-6-6-6-6-2-2-2-2-2-2-2-2--------|
A|----2-2-2-2-2-2-2-2-4-4-4-4-4-4-4-4-6-6-6-6-6-6-6-6-2-2-2-2-2-2-2-2--------|
E|--------------------2-2-2-2-2-2-2-2-4-4-4-4-4-4-4-4-0-0-0-0-0-0-0-0--------|

                                                                  P.M........
e|---------------------------------------------------------------------------|
B|---------------------------------------------------------------------------|
G|-4-4-4-4-4-4-4-4-----------------------------------------------------------|
D|-4-4-4-4-4-4-4-4-4-4-4-4-4-4-4-4-6-6-6-6-6-6-6-6-2-2-2-2-2-2-2-2-----------|
A|-2-2-2-2-2-2-2-2-4-4-4-4-4-4-4-4-6-6-6-6-6-6-6-6-2-2-2-2-2-2-2-2-----------|
E|-----------------2-2-2-2-2-2-2-2-4-4-4-4-4-4-4-4-0-0-0-0-0-0-0-0--00000000-|




SOLO/INTERLUDE

e|------7---7---7---7---7---7---9---9---7---7---7---7---7---7---9---9--------|\
B|------7---7---7---7---7---7---7---7---7---7---7---7---7---7---7---7--------| \
G|---------------------------------------------------------------------------|  \
D|---------------------------------------------------------------------------|   \
A|---------------------------------------------------------------------------|    \
E|---------------------------------------------------------------------------|     \
                                                                                    | 2 Guitars
e|---------------------------------------------------------------------------|     /
B|---------------------------------------------------------------------------|    /
G|---------------------------------------------------------------------------|   /
D|---------------------------------REST--------------------------------------|  /
A|---------------------------------------------------------------------------| /
E|---------------------------------------------------------------------------|/

e|------7---7---7---7---7---7---9---9---7---7---7---7---6~------6~-----------|\
B|------7---7---7---7---7---7---7---7---7---7---7---7---7~------7~-----------| \
G|---------------------------------------------------------------------------|  \
D|---------------------------------------------------------------------------|   \
A|---------------------------------------------------------------------------|    \
E|---------------------------------------------------------------------------|     \
                                                                                    | 2 Guitars
e|---------------------------------------------------------------------------|     /
B|---------------------------------------------------------------------------|    /
G|---------------------------------------------------------------------------|   /
D|----------------------------YES,-REST-AGAIN--------------------------------|  /
A|---------------------------------------------------------------------------| /
E|---------------------------------------------------------------------------|/


e|------7---7---7---7---7---7---9---9---7---7---7---7---7---7---9---9--------|\
B|------7---7---7---7---7---7---7---7---7---7---7---7---7---7---7---7--------| \
G|---------------------------------------------------------------------------|  \
D|---------------------------------------------------------------------------|   \
A|---------------------------------------------------------------------------|    \
E|---------------------------------------------------------------------------|     \
                                                                                    | 2 Guitars
e|-7-7-7-9-9-9-11-11-11-9-9-9-7-7-9-9---7-7-7-9-9-9-11-11-11-9-9-9-7-7-9-9---|     /
B|---------------------------------------------------------------------------|    /
G|---------------------------------------------------------------------------|   /
D|---------------------------------------------------------------------------|  /
A|---------------------------------------------------------------------------| /
E|---------------------------------------------------------------------------|/


e|------7---7---7---7---7---7---9---9---7---7---7---7---6~------6~-----------|\
B|------7---7---7---7---7---7---7---7---7---7---7---7---7~------7~-----------| \
G|---------------------------------------------------------------------------|  \
D|---------------------------------------------------------------------------|   \
A|---------------------------------------------------------------------------|    \
E|---------------------------------------------------------------------------|     \
                                                                                    | 2 Guitars
e|-7-7-7-9-9-9-11-11-11-9-9-9-7-7-9-9-7-7-7-9-9-9-11-11-11-12-12-12-11-11-9-9|     /
B|---------------------------------------------------------------------------|    /
G|---------------------------------------------------------------------------|   /
D|---------------------------------------------------------------------------|  /
A|---------------------------------------------------------------------------| /
E|---------------------------------------------------------------------------|/


e|------7---7---7---7---7---7---9---9---7---7---7---7---7---7---9---9--------|\
B|------7---7---7---7---7---7---7---7---7---7---7---7---7---7---7---7--------| \
G|---------------------------------------------------------------------------|  \
D|---------------------------------------------------------------------------|   \
A|---------------------------------------------------------------------------|    \
E|---------------------------------------------------------------------------|     \
                                                                                    | 2 Guitars
e|-7-7-7-9-9-9-11-11-11-9-9-9-7-7-9-9---7-7-7-9-9-9-11-11-11-9-9-9-7-7-9-9---|     /
B|---------------------------------------------------------------------------|    /
G|---------------------------------------------------------------------------|   /
D|---------------------------------------------------------------------------|  /
A|---------------------------------------------------------------------------| /
E|---------------------------------------------------------------------------|/


e|------7---7---7---7---7---7---9---9---7---7---7---7---6~------6~-----------|\
B|------7---7---7---7---7---7---7---7---7---7---7---7---7~------7~-----------| \
G|---------------------------------------------------------------------------|  \
D|---------------------------------------------------------------------------|   \
A|---------------------------------------------------------------------------|    \
E|---------------------------------------------------------------------------|     \
                                                                                    | 2 Guitars
e|-7-7-7-9-9-9-11-11-11-9-9-9-7-7-9-9---7-7-7-9-9-9-6-6-6-6-6-7\-------------|     /
B|---------------------------------------------------------------------------|    /
G|---------------------------------------------------------------------------|   /
D|---------------------------------------------------------------------------|  /
A|---------------------------------------------------------------------------| /
E|---------------------------------------------------------------------------|/


CHORUS

e|---------------------------------------------------------------------------|
B|---------------------------------------------------------------------------|
G|----4-4-4-4-4-4-4-4--------------------------------------------------------|
D|----4-4-4-4-4-4-4-4-4-4-4-4-4-4-4-4-6-6-6-6-6-6-6-6-2-2-2-2-2-2-2-2--------|
A|----2-2-2-2-2-2-2-2-4-4-4-4-4-4-4-4-6-6-6-6-6-6-6-6-2-2-2-2-2-2-2-2--------|
E|--------------------2-2-2-2-2-2-2-2-4-4-4-4-4-4-4-4-0-0-0-0-0-0-0-0--------|

                                                                  P.M........
e|---------------------------------------------------------------------------|
B|---------------------------------------------------------------------------|
G|-4-4-4-4-4-4-4-4-----------------------------------------------------------|
D|-4-4-4-4-4-4-4-4-4-4-4-4-4-4-4-4-6-6-6-6-6-6-6-6-2-2-2-2-2-2-2-2-----------|
A|-2-2-2-2-2-2-2-2-4-4-4-4-4-4-4-4-6-6-6-6-6-6-6-6-2-2-2-2-2-2-2-2-----------|
E|-----------------2-2-2-2-2-2-2-2-4-4-4-4-4-4-4-4-0-0-0-0-0-0-0-0--00000000-|

e|---------------------------------------------------------------------------|
B|---------------------------------------------------------------------------|
G|----4-4-4-4-4-4-4-4--------------------------------------------------------|
D|----4-4-4-4-4-4-4-4-4-4-4-4-4-4-4-4-6-6-6-6-6-6-6-6-2-2-2-2-2-2-2-2--------|
A|----2-2-2-2-2-2-2-2-4-4-4-4-4-4-4-4-6-6-6-6-6-6-6-6-2-2-2-2-2-2-2-2--------|
E|--------------------2-2-2-2-2-2-2-2-4-4-4-4-4-4-4-4-0-0-0-0-0-0-0-0--------|

                                                                  P.M........
e|---------------------------------------------------------------------------|
B|---------------------------------------------------------------------------|
G|-4-4-4-4-4-4-4-4-----------------------------------------------------------|
D|-4-4-4-4-4-4-4-4-4-4-4-4-4-4-4-4-6-6-6-6-6-6-6-6-2-2-2-2-2-2-2-2-----------|
A|-2-2-2-2-2-2-2-2-4-4-4-4-4-4-4-4-6-6-6-6-6-6-6-6-2-2-2-2-2-2-2-2-----------|
E|-----------------2-2-2-2-2-2-2-2-4-4-4-4-4-4-4-4-0-0-0-0-0-0-0-0--00000000-|

************************************

| /   slide up
| \   slide down
| h   hammer-on
| p   pull-off
| ~   vibrato
| +   harmonic
| x   Mute note
| b   Bend
| pb  Pre-bend
| br  Bend release
| pbr Pre-bend release
| brb Bend release bend

************************************
Tap to rate this tab
# A B C D E F G H I J K L M N O P Q R S T U V W X Y Z