Song name
# A B C D E F G H I J K L M N O P Q R S T U V W X Y Z

Misc Unsigned Bands - Words Mean Nothing - Beautiful Silence tab

Beautiful Silence
-----------------

[Intro]
|-0-|
|-0-|
|---|
|---|
|---|
|---|

[Intro/Verse Pt 1]

This is played 4 times, then carried on for the verse
|-----------------||-----------------|
|-----------------||-----------------|
|-----------------||-----------------|
|-----------------||-----------------|
|-0-4-5-0-4-5-0-4-||-0-5-7-0-5-7-0-5-|
|-|-------------|-||-|-------------|-|
  |______2X_____|    |______2X_____|

[Verse Pt 2 / Bridge]
|---------------------------------------------------------|
|---------------------------------------------------------|
|---------------------------------------------------------|
|---------------------------------------------------------| [2X]
|---------7---------------7---------------7-------5-7-3-5-|
|-5-7-8-5---8-7-8-5-7-8-5---8-7-8-5-7-8-7---8-7-8---5---3-|

============================================================================

[Chorus Pt 1]
|--------------------------------------------------------------------|
|--------------------------------------------------------------------|
|-----------------------------------5-5-5-5-5-5-5-5------------------|
|-7-7-7-7-7-7-7-7--2-2-2-2-2-2-2-2--5-5-5-5-5-5-5-5------------------|
|-7-7-7-7-7-7-7-7--2-2-2-2-2-2-2-2--3-3-3-3-3-3-3-3--5-7-8-0---------|
|-5-5-5-5-5-5-5-5--0-0-0-0-0-0-0-0---------------------------8-7-0-3-|

|--------------------------------------------------------------------|
|--------------------------------------------------------------------|
|--------------------------------------------------------------------|
|-7-7-7-7-7-7-7-7--5-5-5-5-5-5-5-5--2-2-2-2-2-2-2-2------5-------6---|
|-7-7-7-7-7-7-7-7--9-9-9-9-9-9-9-9--2-2-2-2-2-2-2-2----5---5---6---6-|
|-5-5-5-5-5-5-5-5--7-7-7-7-7-7-7-7--0-0-0-0-0-0-0-0--3-------4-------|

[Chorus Pt 2]
|-----------------------------------------------------------------|
|-----------------------------------------------------------------|
|-----------------------------------------------------------------|
|-7-------------------------------5-------------------------------|
|-7-------------2-3-5-3-2---2---2-5-------------2-3-5-3-2---2---2-|
|-5-------5-3-5-----------2---0---3-------5-3-5-----------2---0---|

|-----------------------------------------------------------------|
|-----------------------------------------------------------------|
|-----------------------------------------------------------------|
|-7-------------------------------5-------------------------------|
|-7-------------2-3-5-3-2---2---2-5-------------------------------|
|-5-------5-3-5-----------2---0---3-------5-3-2-3-2-0-5-3-2-3-2-0-|

|-----------------------------------------------------------------|
|-----------------------------------------------------------------|
|-----------------------------------------------------------------|
|-7-------------------------------5-------------------------------|
|-7-------------2-3-5-3-2---2---2-5-------------------------------|
|-5-------5-3-5-----------2---0---3-------5-3-2-3-2-0-5-3-2-3-2-0-|

|-----------------------------------------------------------------|
|-----------------------------------------------------------------|
|-----------------------------------------------------------------|
|-7-----------------------2-3-2-0-5-------------------------------|
|-7-------------2-3-5-3-5---------5-------------2-3-5-3-2-3-2-0---|
|-5-------5-3-5-------------------3-------5-3-5-----------------4-|

============================================================================

[Verse]
|-----------------||-----------------|
|-----------------||-----------------|
|-----------------||-----------------|
|-----------------||-----------------|
|-0-4-5-0-4-5-0-4-||-0-5-7-0-5-7-0-5-|
|-|-------------|-||-|-------------|-|
  |______2X_____|    |______2X_____|

[Verse Pt 2 / Bridge]
|---------------------------------------------------------|
|---------------------------------------------------------|
|---------------------------------------------------------|
|---------------------------------------------------------| [2X]
|---------7---------------7---------------7-------5-7-3-5-|
|-5-7-8-5---8-7-8-5-7-8-5---8-7-8-5-7-8-7---8-7-8---5---3-|

============================================================================

[Chorus Pt 1]
|--------------------------------------------------------------------|
|--------------------------------------------------------------------|
|-----------------------------------5-5-5-5-5-5-5-5------------------|
|-7-7-7-7-7-7-7-7--2-2-2-2-2-2-2-2--5-5-5-5-5-5-5-5------------------|
|-7-7-7-7-7-7-7-7--2-2-2-2-2-2-2-2--3-3-3-3-3-3-3-3--5-7-8-0---------|
|-5-5-5-5-5-5-5-5--0-0-0-0-0-0-0-0---------------------------8-7-0-3-|

|--------------------------------------------------------------------|
|--------------------------------------------------------------------|
|--------------------------------------------------------------------|
|-7-7-7-7-7-7-7-7--5-5-5-5-5-5-5-5--2-2-2-2-2-2-2-2------5-------6---|
|-7-7-7-7-7-7-7-7--9-9-9-9-9-9-9-9--2-2-2-2-2-2-2-2----5---5---6---6-|
|-5-5-5-5-5-5-5-5--7-7-7-7-7-7-7-7--0-0-0-0-0-0-0-0--3-------4-------|

[Chorus Pt 2]
|-----------------------------------------------------------------|
|-----------------------------------------------------------------|
|-----------------------------------------------------------------|
|-7-------------------------------5-------------------------------|
|-7-------------2-3-5-3-2---2---2-5-------------2-3-5-3-2---2---2-|
|-5-------5-3-5-----------2---0---3-------5-3-5-----------2---0---|

|-----------------------------------------------------------------|
|-----------------------------------------------------------------|
|-----------------------------------------------------------------|
|-7-------------------------------5-------------------------------|
|-7-------------2-3-5-3-2---2---2-5-------------------------------|
|-5-------5-3-5-----------2---0---3-------5-3-2-3-2-0-5-3-2-3-2-0-|

|-----------------------------------------------------------------|
|-----------------------------------------------------------------|
|-----------------------------------------------------------------|
|-7-----------------------2-3-2-0-5-------------------------------|
|-7-------------2-3-5-3-5---------5-------------2-3-5-3-2-3-2-0---|
|-5-------5-3-5-------------------3-------5-3-5-----------------4-|

|-----------------------------------------------------------------|
|-----------------------------------------------------------------|
|-----------------------------------------------------------------|
|-7-----------------------2-3-2-0-5-------------------------------|
|-7-------------2-3-5-3-5---------5-------------------------------|
|-5-------5-3-5-------------------3-------5-3-2-3-2-0-5-3-2-3-2-0-|

============================================================================

[Solo]

play this 4 times

|-12-10-8-10-8-7-8-7-01-8-7-8-7----7-8-----8-7-8-7----------8-7-8-7-8-10-|
|-------------------------------10-----8-----------10-8-8----------------|
|----------------------------------------9----------------9--------------|
|------------------------------------------------------------------------|
|------------------------------------------------------------------------|
|------------------------------------------------------------------------|

============================================================================

[Verse]
|-----------------||-----------------|
|-----------------||-----------------|
|-----------------||-----------------|
|-----------------||-----------------|
|-0-4-5-0-4-5-0-4-||-0-5-7-0-5-7-0-5-|
|-|-------------|-||-|-------------|-|
  |______2X_____|    |______2X_____|

[Verse Pt 2 / Bridge]
|---------------------------------------------------------|
|---------------------------------------------------------|
|---------------------------------------------------------|
|---------------------------------------------------------| [2X]
|---------7---------------7---------------7-------5-7-3-5-|
|-5-7-8-5---8-7-8-5-7-8-5---8-7-8-5-7-8-7---8-7-8---5---3-|

============================================================================

[Chorus Pt 1]
|--------------------------------------------------------------------|
|--------------------------------------------------------------------|
|-----------------------------------5-5-5-5-5-5-5-5------------------|
|-7-7-7-7-7-7-7-7--2-2-2-2-2-2-2-2--5-5-5-5-5-5-5-5------------------|
|-7-7-7-7-7-7-7-7--2-2-2-2-2-2-2-2--3-3-3-3-3-3-3-3--5-7-8-0---------|
|-5-5-5-5-5-5-5-5--0-0-0-0-0-0-0-0---------------------------8-7-0-3-|

|--------------------------------------------------------------------|
|--------------------------------------------------------------------|
|--------------------------------------------------------------------|
|-7-7-7-7-7-7-7-7--5-5-5-5-5-5-5-5--2-2-2-2-2-2-2-2------5-------6---|
|-7-7-7-7-7-7-7-7--9-9-9-9-9-9-9-9--2-2-2-2-2-2-2-2----5---5---6---6-|
|-5-5-5-5-5-5-5-5--7-7-7-7-7-7-7-7--0-0-0-0-0-0-0-0--3-------4-------|

[Chorus Pt 2]
|-----------------------------------------------------------------|
|-----------------------------------------------------------------|
|-----------------------------------------------------------------|
|-7-------------------------------5-------------------------------|
|-7-------------2-3-5-3-2---2---2-5-------------2-3-5-3-2---2---2-|
|-5-------5-3-5-----------2---0---3-------5-3-5-----------2---0---|

|-----------------------------------------------------------------|
|-----------------------------------------------------------------|
|-----------------------------------------------------------------|
|-7-------------------------------5-------------------------------|
|-7-------------2-3-5-3-2---2---2-5-------------------------------|
|-5-------5-3-5-----------2---0---3-------5-3-2-3-2-0-5-3-2-3-2-0-|

|-----------------------------------------------------------------|
|-----------------------------------------------------------------|
|-----------------------------------------------------------------|
|-7-----------------------2-3-2-0-5-------------------------------|
|-7-------------2-3-5-3-5---------5-------------2-3-5-3-2-3-2-0---|
|-5-------5-3-5-------------------3-------5-3-5-----------------4-|

|-----------------------------------------------------------------|
|-----------------------------------------------------------------|
|-----------------------------------------------------------------|
|-7-----------------------2-3-2-0-5-------------------------------|
|-7-------------2-3-5-3-5---------5-------------------------------|
|-5-------5-3-5-------------------3-------5-3-2-3-2-0-5-3-2-3-2-0-|

============================================================================

[Fade Out With Verse]

============================================================================

[End Of Song]
Tap to rate this tab
# A B C D E F G H I J K L M N O P Q R S T U V W X Y Z