Song name
# A B C D E F G H I J K L M N O P Q R S T U V W X Y Z

Misc Unsigned Bands - Theflamingtpots - Theres A Dachshund In My Fishbowl tab

This song is written by me, on acoustic guitar....

Intro ({Twinkle Twinkle} Play softly)
e----------0-0------------------------------------------------------0-0--|
b------3-3-----3--1-1-0-0--------3-3-1-1-0-0----3-3-1-1-0-0--------3----3|
g--0-0---------------------2-2-0--------------2--------------2-0-0-------|
d------------------------------------------------------------------------|
a------------------------------------------------------------------------|
E------------------------------------------------------------------------|


e|-------999--------|
B|------0-0---------|
G|-------0-0--------|
D|----88----88------|x4
A|----66----66------|
Eb|---77----77------|


e|-------888--------|
B|------2-2---------|
G|-------2-2--------|
D|----77----77------|x2
A|----55----55------|
Eb|---66----66------|

Then the solo in the middle is freestyle! (But is full of slide ups!)

Outro (Twinkle Twinkle Played Softly)
e----------0-0------------------------------------------------------0-0--|
b------3-3-----3--1-1-0-0--------3-3-1-1-0-0----3-3-1-1-0-0--------3----3|
g--0-0---------------------2-2-0--------------2--------------2-0-0-------|
d------------------------------------------------------------------------|
a------------------------------------------------------------------------|
E------------------------------------------------------------------------|
Tap to rate this tab
 
# A B C D E F G H I J K L M N O P Q R S T U V W X Y Z