Song name
# A B C D E F G H I J K L M N O P Q R S T U V W X Y Z

Misc Unsigned Bands - Xoomster - Grace And Harmonics tab

This is a tab of an original accoustic instrumental.  You can see the YouTube 
"performance" of this at this link:

http://www.youtube.com/watch?v=Kw2HygRanlQ


                         Grace and Harmonics                               


Track 1
             v     v                  v     v                               
     Q    E  E  E  Q    E     Q    E  E  E  Q    E     Q    E  H        E   
E||--5----x--5--L--5----L--|--3----x--3--L--3----L--|--7----L--5--------L--|
B||--3----x--3-----3-------|--3----x--3-----3-------|--5----L--5--------L--|
G||--4----x--4-----4-------|--4----x--4-----4-------|--5-------5--------L--|
D||--5----x--5-----5-------|--5----x--5-----5-------|--5----L--5--------L--|
A||------------------------|------------------------|----------------------|
E||------------------------|------------------------|----------------------|


  Q    E  H        E      E  E  E   Q    Q    E     Q    Q    E  E  Q     
----------------------|--11--9--L--10----8----9--|--L----7---------------|
--7----L--5--------L--|---9---------8---------7--|--L---------5--7--L----|
--7----L--7--------L--|---9---------8---------7--|--L--------------------|
--5----L--5--------L--|---9---------8---------7--|--L--------------------|
--7----L--7--------L--|--------------------------|--L--------------------|
----------------------|--------------------------|-----------------------|


                                |--3--|                             
   Q    E  E  H           E  E  E  E  E  E  E  E  E     E  Q    E   
--10-------7--L--------|-----2--2--3--2--------------|-----2----L--|
--10-------7--L--------|-----------------3-----------|-----3----L--|
---9-------7--L--------|--------------------4-----4--|--L----------|
---9-------5--L--------|-----------------------5-----|-------------|
-----------------------|-----------------------------|-------------|
-----------------------|-----------------------------|-------------|


  Q    E  E  H           Q    E  E  H            Q    E   E  H         
--2----L--2--L--------|--5----L--7--L--------|---7----L---7--L--------|
--3----L--3--L--------|--3----L--7--L--------|---8----L---8--L--------|
--4----L--4-----------|--4----L--7-----------|---9----L---9-----------|
--5----L--5--L--------|--5----L--5--L--------|--10----L--10--L--------|
----------------------|----------------------|------------------------|
----------------------|----------------------|------------------------|


   W                     E   E   E  Q    E  E  E     E  E  E  Q    Q    E   
--10----------------|-------10-----------8--------|-----7----------5-------|
---8----------------|-----------------------------|------------------------|
---9----------------|--/11------11--9-------9--7--|--L-----7--5---------5--|
--10----------------|-----------------------------|------------------------|
--------------------|-----------------------------|------------------------|
--------------------|-----------------------------|------------------------|


                              |--3--|                      
   E  E  E  E  E  E  E  E     E  E  E  E  E  E  E  Q       
------------3--L-----------|--------------------3--L-----||
------3--5--------3--5--3--|--6--5--3-----------3--L-----||
--/4-----------------------|-----------4--------4--L----*||
---------------------------|--------------5-----5--L----*||
---------------------------|-----------------------------||
---------------------------|-----------------------------||


                                                                     v        
|--3--|                                                                     
E  E  E  E  E  E  E  Q       Q    E  Q    E  E  E     Q    Q    E  E  Q     
------------------3--L----|--2----L--2-------------|-------7----7--7--L----|
6--5--3-----------3--L----|--3----L--3-------------|-------5----5--5--L----|
---------4--------4--L----|--4----L--4-------------|-------5----5--5--L----|
------------5-----5--L----|--4----L--4-------------|-------7----7--7--L----|
--------------------------|---------------3--2--0--|--L--------------------|
--------------------------|------------------------|-----------------------|


                                        v                                 
  Q    E  Q    E  E  E     Q    Q    E  E  Q       Q    E  Q    E  E  E   
--2----L--2-------------|-------7----7--7--L----|--2----L--2-------------|
--3----L--3-------------|-------5----5--5--L----|--3----L--3-------------|
--4----L--4-------------|-------5----5--5--L----|--4----L--4-------------|
--4----L--4-------------|-------7----7--7--L----|--4----L--4-------------|
---------------3--2--0--|--L--------------------|---------------3--2--0--|
------------------------|-----------------------|------------------------|


               v                                                    
  Q    Q    E  E  Q       Q    E  Q    Q    E     W                 
-------7----7--7--L----|-----------------------|-------------------|
-------5----5--5--L----|--5----L--6----6----7--|--L----------------|
-------5----5--5--L----|--4----L--5----5----6--|--L----------------|
-------7----7--7--L----|--5----L--6----6----7--|--L----------------|
--L--------------------|--4----L--5----5----6--|--L----------------|
-----------------------|-----------------------|-------------------|


                                        v                                 
  Q    E  Q    E  E  E     Q    Q    E  E  Q       Q    E  Q    E  E  E   
--2----L--2-------------|-------7----7--7--L----|--2----L--2-------------|
--3----L--3-------------|-------5----5--5--L----|--3----L--3-------------|
--4----L--4-------------|-------5----5--5--L----|--4----L--4-------------|
--4----L--4-------------|-------7----7--7--L----|--4----L--4-------------|
---------------3--2--0--|--L--------------------|---------------3--2--0--|
------------------------|-----------------------|------------------------|


               v                                                v        
  Q    Q    E  E  Q       Q    E  Q    E  E  E     Q    Q    E  E  Q     
-------7----7--7--L----|--2----L--2-------------|-------7----7--7--L----|
-------5----5--5--L----|--3----L--3-------------|-------5----5--5--L----|
-------5----5--5--L----|--4----L--4-------------|-------5----5--5--L----|
-------7----7--7--L----|--4----L--4-------------|-------7----7--7--L----|
--L--------------------|---------------3--2--0--|--L--------------------|
-----------------------|------------------------|-----------------------|


  Q    E  Q    Q    E     E  E  E  E  E  E  E  E     Q    E  Q    Q    E   
--5----L--6----6----7--|--L--7--------7--------7--|--5----L--6----6----7--|
--5----L--6----6----7--|--L-----7--------7--------|--5----L--6----6----7--|
--5----L--6----6----7--|--L--------7--------7-----|--5----L--6----6----7--|
--4----L--5----5----5--|--L-----------------------|--4----L--5----5----5--|
-----------------------|--------------------------|-----------------------|
-----------------------|--------------------------|-----------------------|


  E  E  E  E  E  E  E  E     Q    E  Q    Q    E     W                  
--L--7--------7--------7--|--5----L--6----6----7--|--L----------------||
--L-----7--------7--------|--5----L--6----6----7--|--L----------------||
--L--------7--------7-----|--5----L--6----6----7--|--L----------------||
--L-----------------------|--4----L--5----5----5--|--L----------------||
--------------------------|-----------------------|-------------------||
--------------------------|-----------------------|-------------------||




Duration Legend
---------------
W - whole
H - half
Q - quarter
E - 8th
S - 16th
T - 32nd
X - 64th
. - note dotted
|-n-|  - n-tuplets


Tablature Legend
----------------
L - tied note
x - dead note
g - grace note
(n) - ghost note
> - accentuded note
NH - natural harmonic
AH - artificial harmonic
TH - tapped harmonic
SH - semi harmonic
PH - pitch harmonic
h - hammer on
p - pull off
b - bend
br - bendRelease
pb - preBend
pbr - preBendRelease
brb - bendReleaseBend
\n/ - tremolo bar dip
\n - tremolo bar dive
-/n - tremolo bar Release up
/n\ - tremolo bar inverted dip
/n - tremolo bar return
-\n - tremolo bar Release down
S - shift slide
s - legato slide
/ -  slide into from below or out of upwards
\ -  slide into from above or out of downwards
~ - vibrato
W - wide vibrato
tr - trill
TP - tremolo picking
T - tapping
S - slap
P - pop
< - fade in
^ - brush up
v - brush down
Tap to rate this tab
# A B C D E F G H I J K L M N O P Q R S T U V W X Y Z