Song name
# A B C D E F G H I J K L M N O P Q R S T U V W X Y Z

Misc Unsigned Bands - Sing Praises To Jehovah - We Thank You Jehovah tab

-------------------------------------------------------------------------------
		Sing Praises To Jehovah - We Thank You, Jehovah
-------------------------------------------------------------------------------
Song number: 212
Tabbed by: nrrjw
Tuning: Standard

In the new song book Sing To Jehovah the number is 2, I think.
Hope you like it my brothers and sisters!

e|-------------------|-10--8---8--6--5-|--5--6----------|
B|---6---6--8--5---6-|-----------------|--------8-10-6--|
G|-5-----------------|-----------------|----------------|
D|-------------------|-----------------|----------------|
A|-------------------|-----------------|----------------|
E|-------------------|-----------------|----------------|

e|-------------------|-----------------|-10--8---8--6--5|
B|-6-8-5-------------|---6---6--8--5--6|----------------|
G|--------7----5-----|-5---------------|----------------|
D|-------------------|-----------------|----------------|
A|-------------------|-----------------|----------------|
E|-------------------|-----------------|----------------|

e|----10--8--6--10---|-----------------|
B|-6-----------------|-6--8--10--8--6--|
G|-------------------|-----------------|
D|-------------------|-----------------|
A|-------------------|-----------------|
E|-------------------|-----------------|

************************************

| /   slide up
| \   slide down
| h   hammer-on
| p   pull-off
| ~   vibrato
| +   harmonic
| x   Mute note
| b   Bend

************************************
Tap to rate this tab
 
# A B C D E F G H I J K L M N O P Q R S T U V W X Y Z