Song name
# A B C D E F G H I J K L M N O P Q R S T U V W X Y Z

Misc Unsigned Bands - Josh Maynard - Song 1 tab

Intro
D|------------------------------------------------------------------|
A|------------------------------------------------------------------|
F|------------------------------------------------------------------|
C|-----2-------3-------5-------7------------------------------------|
G|---0---0---0---0---3---3---5---5----------------------------------|
C|-0-------0-------3-------5----------------------------------------| x3
   . . . . . . . . . . . . . . . .

Verse
D|------------------------------------------------------------------|
A|------------------------------------------------------------------|
F|------------------------------------------------------------------|
C|-8-----8-----8-----8-----8---8---10----10----10----10----10--10---|
G|-6-6-6-6-6-6-6-6-6-6-6-6-6-6-6-6-8-8-8-8-8-8-8-8-8-8-8-8-8-8-8-8--|
C|-6-6-6-6-6-6-6-6-6-6-6-6-6-6-6-6-8-8-8-8-8-8-8-8-8-8-8-8-8-8-8-8--|
     . .   . .   . .   . .   .   .   . .   . .   . .   . .   .   . 
D|------------------------------------------------------------------|
A|------------------------------------------------------------------|
F|------------------------------------------------------------------|
C|-7-----7-----7-----7-----7---7---5-5-5-5-5-5-2-2-2-2-2-2-2-2-2-2--|
G|-5-5-5-5-5-5-5-5-5-5-5-5-5-5-5-5-3-3-3-3-3-3-2-2-2-2-2-2-2-2-2-2--|
C|-5-5-5-5-5-5-5-5-5-5-5-5-5-5-5-5-3-3-3-3-3-3-2-2-2-2-2-2-2-2-2-2--| x2
     . .   . .   . .   . .   .   .   

Chorus
D|------------------------------------------------------------------|
A|------------------------------------------------------------------|
F|-7-7-7-7-7-7-5-5-5-5-5-5-5-5-5-5----------------------------------|
C|-7-7-7-7-7-7-5-5-5-5-5-5-5-5-5-5-3-3-3-3-3-3-5-5-5-5-5-5-5-5-5-5--|
G|-5-5-5-5-5-5-3-3-3-3-3-3-3-3-3-3-3-3-3-3-3-3-5-5-5-5-5-5-5-5-5-5--|
C|---------------------------------3-3-3-3-3-3-5-5-5-5-5-5-5-5-5-5--| 

D|------------------------------------------------------------------|
A|------------------------------------------------------------------|
F|-7-7-7-7-7-7-5-5-5-5-5-5-5-5-5-5----------------------------------|
C|-7-7-7-7-7-7-5-5-5-5-5-5-5-5-5-5-3-3-3-7-7-7-5-5-5-5-5-5-5-5-5-5--|
G|-5-5-5-5-5-5-3-3-3-3-3-3-3-3-3-3-3-3-3-7-7-7-5-5-5-5-5-5-5-5-5-5--|
C|---------------------------------3-3-3-7-7-7-5-5-5-5-5-5-5-5-5-5--|

D|------------------------------------------------------------------|
A|------------------------------------------------------------------|
F|-7-7-7-7-7-7-5-5-5-5-5-5-5-5-5-5----------------------------------|
C|-7-7-7-7-7-7-5-5-5-5-5-5-5-5-5-5-3-3-3-3-3-3-5-5-5-5-5-5-5-5-5-5--|
G|-5-5-5-5-5-5-3-3-3-3-3-3-3-3-3-3-3-3-3-3-3-3-5-5-5-5-5-5-5-5-5-5--|
C|---------------------------------3-3-3-3-3-3-5-5-5-5-5-5-5-5-5-5--| 

D|------------------------------------------------------------------|
A|------------------------------------------------------------------|
F|-7-7-7-7-7-7-5-5-5-5-5-5-5-5-5-5----------------------------------|
C|-7-7-7-7-7-7-5-5-5-5-5-5-5-5-5-5-3-3-3-7-7-7-5-5-5-7-7-7-5-5-5-7--|
G|-5-5-5-5-5-5-3-3-3-3-3-3-3-3-3-3-3-3-3-5-5-5-5-5-5-5-5-5-5-5-5-5--|
C|---------------------------------3-3-3-5-5-5-5-5-5-5-5-5-5-5-5-5--|

Intro x2

Verse x1

chorus x1

Breakdown
D|------------------------------|   -----------------------------------|
A|------------------------------|   -----------------------------------|
F|------------------------------|   -----------------------------------|
C|-0-----0---------------------0|   0-----0-----0---2-2-3-3-2-2-0-0----|
G|-0-----0---------------------0|   0-----0-----0---0-0-0-0-0-0-0-0----|
C|-0-0-0-0-0-0-0-0-0-0-0-0-0-0-0|x3 0-0-0-0-0-0-0-0-0------------------| x2
     . .   . . . . . . . . . .        . .   . .   . . . . . . . . .

Intro Veriation
D|------------------------------------------------------------------|
A|------------------------------------------------------------------|
F|------------------------------------------------------------------|
C|-----2---2-------3---3-------5---5---5-5-5-7-7-7-5-5-5-7-7-7------|
G|---0---0---0---0---0---0---3---3---3-5-5-5-5-5-5-5-5-5-5-5-5------|
C|-0-----------0-----------3-----------5-5-5-5-5-5-5-5-5-5-5-5------|

chorus x2

Intro Veriation x1 

D|------|
A|------|
F|------|
C|-7~---|
G|-5~---|
C|-5~---|
Tap to rate this tab
 
# A B C D E F G H I J K L M N O P Q R S T U V W X Y Z