Song name
# A B C D E F G H I J K L M N O P Q R S T U V W X Y Z

Misc Unsigned Bands - The Uncertains - Feels So Wrong tab

Feels So Wrong
The Uncertains

(Rhythm)
 verse
e------------------------------------------------------------------|
B------------------------------------------------------------------|
G-9-9-9-8-8-9-9-9-9------------------------------------------------|
D-9-9-9-9-9-9-9-9-9-9-9-9-9-9-9-9-9-7-7-7-6-6-7-7-7-9-9-9-9-9-9-9-9|(x4)
A-7-7-7-7-7-7-7-7-7-9-9-9-9-9-9-9-9-7-7-7-7-7-7-7-7-9-9-9-9-9-9-9-9|
E-x-x-x-x-x-x-x-x-x-7-7-7-7-7-7-7-7-5-5-5-5-5-5-5-5-7-7-7-7-7-7-7-7|

(Lead)
 verse (PALM MUTED)
e-----------------------------------------------------------------------|
B-----------------------------------------------------------------------|
G-9-9-9-8-8-8-9-9-------------------------------------------------------|
D----------------9-9-9-7-7-7-6-6-7-7-7-6-6-6-7-7-9-9-9-11-11-11-13-13-13|(x4)
A-----------------------------------------------------------------------|
E-----------------------------------------------------------------------|

(Rhythm)
 pre-chorus
e-----------------|
B-----------------|
G-----------9-----|(x4)
D-7----9----9(x16)| 
A-7(x8)9(x8)7-----|
E-5----7----------|

(Lead)
 pre-chorus

e------------------------------------------|
B------------------------------------------|
G-----------9-9-9-8-8-8-9-9-9-9-9-8-8-8-9-9|(x4)
D-7----9-----------------------------------| 
A-7(x8)9(x8)-------------------------------|
E-5----7-----------------------------------|

(Rhythm+Lead)
 chorus

e------------------------------------------------|
B------------------------------------------------|
G-9-9-x-x-x-x------------------------------------|(x2)
D-9-9-x-x-x-x-9-9-x-x-x-x-7-7-x-x-x-x-9-9-x-x-x-x|
A-7-7-x-x-x-x-9-9-x-x-x-x-7-7-x-x-x-x-9-9-x-x-x-x|
E-------------7-7-x-x-x-x-5-5-x-x-x-x-7-7-x-x-x-x|

(Rhythm)
 post-chorus
e------------------------------|
B------------------------------|
G------------------------------|
D-7-7-7-7-7-7-7-7-9-9-9-9-9-9-9|(x4)
A-7-7-7-7-7-7-7-7-9-9-9-9-9-9-9|
E-5-5-5-5-5-5-5-5-7-7-7-7-7-7-7|

(Lead)
 post-chorus
e-----------------------------------------------------7-7-7-5-5-5-3-3|
B--------------------------------------------------------------------|
G-9-9-9-8-8-8-9-9-11-11-11-9-9-9-8-8-8-9-9-9-8-8-8-9-9---------------|
D--------------------------------------------------------------------|(x2)
A--------------------------------------------------------------------|
E--------------------------------------------------------------------|

(Rhythm+Lead)
 bridge
e----------------------| |-----------------------|
B----------------------| |-----------------------|
G-9--------------------| |-9---------------14----|
D-9(x8)9----11----7----| |-9(x8)9----11----14(x8)|
A-7----9(x8)11(x8)7(x8)| |-7----9(x8)11(x8)12----|
E------7-----9----5----| |------7-----9----------|

(Rhythm)
 interlude
e--------------------|
B--------------------|
G---9----------------|
D--9-9---9----7----9-|(x3)
A-7-----9-9--7-7--9-9|
E------7----5----7---|

Song Order

verse
pre-chorus
chorus
post-chrous
verse
pre-chorus
chorus
post-chorus
bridge
interlude
chorus
post-chorus
Tap to rate this tab
 
# A B C D E F G H I J K L M N O P Q R S T U V W X Y Z