Song name
# A B C D E F G H I J K L M N O P Q R S T U V W X Y Z

Misc Unsigned Bands - Jh-28 - Caramelldansen tab

-------------------------------------------------------------------------------
(Caramelldansen Metal Guitar)
arranged by jh28
-------------------------------------------------------------------------------
Tabbed by:Holykatzbob
Email: holykatz@gmail.com

This is my first tab ever, and I didn't realize it was so difficult and time consuming.
no one was able to tab it, so I decided to take initiative and make one. Some parts
be a little messed up, the maker of the song uses a sloppy rock strum pattern, and I'm 
skillful with tabs. If you don't know what the song is it's actually a Youtube cover,
the link: http://www.youtube.com/watch?v=KuWMdPk-9rI. It's in the key of F sharp major.
Oh yeah and Caramelldansen is an extremely addictive Swedish techno song turned internet
that's been sped up and remixed multiple times. The version that this tab is supposed
be play over is called "Caramelldansen Speedycake Remix" because it is played faster and 
a step higher pitch than the original Swedish version. Well enough of my babbling
the tab:

Tuning: Standard

Intro (After first half measure of the real song)
e|-------------------------------------------------------|
B|-------------------------------------------------------|
G|-------------666------------8-----------4-4------------|
D|4-4----------666------------8-----------4-4------------|
A|4-4----------444------------6-----------2-2------------|
E|2-2----------------------------------------------------|

e|-------------------------------------------------------|
B|-------------------------------------------------------|
G|----------------6-----------6h8---------8h11-----------|
D|4-4----------/8----------------------------------------|
A|4-4----------------------------------------------------|
E|2-2----------------------------------------------------|


e|--------------------------------------------------------|
B|--------------------------------------------------------|
G|11/15---------(slide pick up fretboard)-----------------|
D|-----------------------------------------------------3--|
A|-----------------------------------------------------3--|
E|-----------------------------------------------------1--|

e|----------------------------------------------------------------------|
B|----------------------------------------------------------------------|
G|------------------x6x6-6-x6x6-6-x6-6--x8x8-8-x8x8--x4x4-4-x4-x6x6-6-x6|
D|4--4-x4x4-4-x4-4--x6x6-6-x6x6-6-x6-6--x8x8-8-x8x8--x4x4-4-x4-x6x6-6-x6|
A|4--4-x4x4-4-x4-4--x4x4-4-x4x4-4-x4-4--x6x6-6-x6x6--x2x2-2-x2-x4x4-4-x4|
E|2--2-x2x2-2-x2-2------------------------------------------------------|

e|-----------------------9------------------------------------------11h13h14|
B|11-11-11-9----11-9-9-9----9-7-7-7-9---9--------------------11h12h13-------|
G|-----------11------------9----------8-------------10h11h13----------------|
D|----------------------------------------9-9h11h13-------------------------|
A|--------------------------------------------------------------------------|
E|--------------------------------------------------------------------------|

Verse I (Play twice)
e|----------------------------------------------------------------------------|
B|x11x11-11-11-x11x11-11-11-x11-11-11-11-x11x11-11-11-11-x11x11-11-11---------|
G|x11x11-11-11-x11x11-11-11-x11-11-11-11-x11x11-11-10-11-x11x11-11-11---------|
D|x11x11-11-11-x11x11-11-11-x11-11-11-11-x11x11-11-11-11-x11x11-11-11---------|
A|----------------------------------------------------------------------------|
E|----------------------------------------------------------------------------|

e|----------------------------------------------------------------------------|
B|x11x11-11--------------------------------x6x6-6-6-x6x6-6-6-x6-6-6-6-x6-6-6--|
G|x11x11-11-11-10---11-10---11p10-11p10----x6x6-6-6-x6x6-6-6-x6-6-6-6-x6-6-6--|
D|x11x11-11-------9-------9-------------9--x6x6-6-6-x6x6-6-6-x6-6-6-6-x6-6-6--|
A|----------------------------------------------------------------------------|
E|----------------------------------------------------------------------------|

e|--------------------------------------------------------------------------|
B|x6-6-x6-6--x11x11-11-11-x11x11-11-11-x11x11-11\---------------------------|
G|x6-6-x6-6--x11x11-11-11-x11x11-11-11-x11x11-11\---------------------------|
D|x6-6-x6-6--x11x11-11-11-x11x11-11-11-x11x11-11\---------------------------|
A|--------------------------------------------------------------------------|
E|--------------------------------------------------------------------------|

Chorus   I
e|----------------------------------------------------------------------------|
B|----------------------------------------------------------------------------|
G|---------66666666-88888888-44444444-------------6-x6x6-6-x6x6-6-4-----------|
D|44444444-66666666-88888888-44444444--4----------6-x6x6-6-x6x6-6-4-----------|
A|44444444-44444444-66666666-22222222--4-4---2----4-x4x4-4-x4x4---------------|
E|22222222-----------------------------2---2---4------------------------------|

                                  u-u-uma-uma
e|----------------------------------------------------------------------------|
B|7-/9--\7-7p6-7p6------------------------------------------x11x11-11-x11x11--|
G|8-/10-\8-8p6-8p6---4-4-4/6-6-6--13-13-13-13b15r13p11------x11x11-11-x11x11--|
D|8------------------4-4-4/6-6-6-----------------------13---x11x11-11-x11x11--|
A|6------------------2-2-2/4-4-4----------------------------------------------|
E|----------------------------------------------------------------------------|
e|----------------------------------------------------------------------------|
B|11-x11x11-11-x11x11-11------------------------------------------------------|
G|11-x11x11-11-x11x11-11-13-13-13-13b15r13p11---------------------11----------|
D|11-x11x11-11-x11x11-11--------------------13--------11----11-13-------------|
A|----------------------------------------------11-13----13-------------------|
E|----------------------------------------------------------------------------|

e|--------------------------------------------------------------------------|
B|--------------------------------------------------------------------------|
G|15-15-15-17-15-----13-11----11-13b15r13p11----13-13-13-13b15r13p11--------|
D|---------------16--------13----------------13---------------------13-13p11|
A|--------------------------------------------------------------------------|
E|--------------------------------------------------------------------------|

Verse II
e|------------------------------------------------------------------------|
B|------------------------------------------------------------------------|
G|--------------------------------------------------------------4-6-------|
D|--------------------------------------------------------------4-6-------|
A|--------------------------------------------------------------2-4-------|
E|2-222-222-222-222-222-222-222-222-222-222-222-222-222-222-222-----------|

e|---------------------------------------------------------------------|
B|---------------------------------------------------------------------|
G|---------------------------------------------------------------------|
D|-----------------------------------4---------------------------------|
A|444-444-444-444-444-444-444-444-/6-----------------------------------|
E|--------------------------------------222-222-222-222-222-222-222-222|

e|x2-2-x2-2-x2-2-x2-2-x2-2-x2-2-x2-2-x2-2---------------------------------|
B|x2-2-x2-2-x2-2-x2-2-x2-2-x2-2-x2-2-x2-2---------------------------------|
G|x3-3-x3-3-x3-3-x3-3-x3-3-x3-3-x3-3-x3-3--6-6-6-6-6-6-6-6-6-6-6-6-6-6-6-6|
D|x4-4-x4-4-x4-4-x4-4-x4-4-x4-4-x4-4-x4-4--6-6-6-6-6-6-6-6-6-6-6-6-6-6-6-6|
A|-----------------------------------------4-4-4-4-4-4-4-4-4-4-4-4-4-4-4-4|
E|------------------------------------------------------------------------|

                                  Chorus II
e|----------------------------/\-------------------------------------|
B|----------------------------/\-------------------------------------|
G|----------------------------/\----------66666666-88888888-4444-6666|
D|4-4-4-4-4-4-4-4-------------/\-44444444-66666666-88888888-4444-6666|
A|4-4-4-4-4-4-4-4-------------/\-44444444-44444444-66666666-2222-4444|
E|2-2-2-2-2-2-2-2-------------/\-22222222----------------------------|

  (Second Measure Chorus Licks)               Guitar Solo
e|--------------------------------------------14p13-14p13--14p13-14p13---|
B|--------------------7--7/9\7--6------------------------14-----------14-|
G|3--3-2------666664--8--8/10\8-6--4-4--6-66-----------------------------|
D|4--4-2-4-2--666664--8------------4-4--6-66-----------------------------|
A|4------4-2--444444--6------------2-2--4-44-----------------------------|
E|2----------------------------------------------------------------------|

e|14p13-14p13--14p13-14p13--13-14-16-16b18r16-14-13-14----------------------|
B|-----------14-----------14---------------------------14-------------------|
G|---------------------------------------------------------/16-15-----------|
D|--------------------------------------------------------------------------|
A|--------------------------------------------------------------------------|
E|--------------------------------------------------------------------------|
                                             (This part's probably incorrect,
e|------------------------------14----------------------------------------|
B|------------------------16-18----18-16-18----------------------16--16-18|
G|16p15-16p15----15h16h18----------------------15--15-16-18-16-18--18-----|
D|------------16-----------------------------16--16-----------------------|
A|------------------------------------------------------------------------|
E|------------------------------------------------------------------------|
 Just play some F sharp arpeggios and you'll be fine for the end of the solo)
e|-----14--14-16-14-16-18-16-18-19b21----|
B|16-18--18------------------------------|
G|---------------------------------------|
D|---------------------------------------|
A|---------------------------------------|
E|---------------------------------------|

Breakdown (clean)
e|----2----------4----------6----------2-----|
B|------2----------6----------7----------4---|
G|--------3----------6----------8----------4-|
D|--4----------6----------8----------4-------|
A|-----------4----------6----------2---------|
E|2------------------------------------------|



Chorus III
e|\-------------------------------------------------------------------|
B|\-------------------------------------------------------------------|
G|\----------6666-x6x6-6--x8x8-8-x8x8-8-x8-8--x4x4-4-x4--x6x6-6-x6----|
D|\44444444--6666-x6x6-6--x8x8-8-x8x8-8-x8-8--x4x4-4-x4--x6x6-6-x6----|
A|\44444444--4444-x4x4-4--x6x6-6-x6x6-6-x6-6--x2x2-2-x2--x4x4-4-x4----|
E|\22222222-----------------------------------------------------------|
Pay the part labeled (Second measure chorus licks), then repeat Chorus III and play the
measure chorus licks again. I hope this helped! By the way  hope this isn't spam, but
a link to my version http://www.youtube.com/watch?v=QpaO4sa6bgA. I don't think it's as 
the Japanese kid's, but I tried to make it more metal and less J-pop. Enjoy!

End
e|\-----------------------------/\|
B|\-----------------------------/\|
G|\-----------------------------/\|
D|\-4---------------------------/\|
A|\-4---------------------------/\|
E|\-2---------------------------/\|
************************************

| /   slide up
| \   slide down
| h   hammer-on
| p   pull-off
| ~   vibrato
| +   harmonic
| x   Mute note
| b   Bend
| pb  Pre-bend
| br  Bend release
| pbr Pre-bend release
| brb Bend release bend

************************************
Tap to rate this tab
 
# A B C D E F G H I J K L M N O P Q R S T U V W X Y Z