Song name
# A B C D E F G H I J K L M N O P Q R S T U V W X Y Z

Misc Unsigned Bands - Ramparts - Bed Of Roses tab

-------------------------------------------------------------------------------
	                 Bed Of Roses - Ramparts
-------------------------------------------------------------------------------
Tabbed by: Jimmy
Email:

Tuning: Drop D


 Verse 1  0:00 - 0:25
e|---------------------------------------------------------------------------|
B|---------------------------------------------------------------------------|
G|---------------------------------------------------------------------------|
D|----3----3---3b--3-1------------3----3---3b--3-1--1h3--1-------------------|
A|----------------------6--8-------------------------------------------------|
E|-1-----1---1----------6--8---1-----1---1-----------------------------------|

 Verse 2 0:25 - 0:35
e|---------------------------------------------------------------------------|
B|---------------------------------------------------------------------------|
G|---------------------------------------------------------------------------|
D|-------1-0------------1-0----3-----------1-0-------------------------------|
A|---------------------------------------------------------------------------|
E|-1---------------1------------------1--------------------------------------|
   - end of verse 2,
e|---------------------------------------------------------------------------|
B|---------------------------------------------------------------------------|
G|---8-8-8-8-8-8-8-8-10-10-10------------------------------------------------|
D|---6-6-6-6-6-6-6-6--8--8--8-8----------------------------------------------|
A|---6-6-6-6-6-6-6-6--8--8--8-8----------------------------------------------|
E|---6-6-6-6-6-6-6-6--8--8--8-8-8-9-8-6-1------------------------------------|

After verse 2, play verse 1 again. Then play Verse 3

 Verse 3:  Play twice
e|---------------------------------------------------------------------------|
B|---------------------------------------------------------------------------|
G|---------------------------------------------------------------------------|
D|-7----7---------------------------7----7-----------------------------------|
A|-5----5-6----8----8/5--5---55555555----5-----------------------------------|
E|--------6----8----8/5--5---5555555-----------------------------------------|

 Verse 4: this sounds funky but its right. trust me.
e|---------------------------------------------------------------------------|
B|---------------------------------------------------------------------------|
G|-----4---4--------4---4------4---4-----------------------------------------|
D|---3---3--------3---3------3---3-------------------------------------------|
A|-------------------------1----------1--------------------------------------|
E|-1----------1/3-----------------------4--4-3-1-----------------------------|
 Verse 5: When it starts to speed up at the end, play this.
e|--------------------------------------------------------------------------------------|
B|--------------------------------------------------------------------------------------|
G|--------------------------------------------------------------------------------------|
D|----------3--3------------------------------------------------------------------------|
A|-1--1-3---1--1-4--4-3-1---------------------------------------------------------------|
E|-1--1-3--------4--4-3-1---------------------------------------------------------------|
then it will stop when the lyrics go Teeheehee. then it will start up again at verse 
then play the solo if you an effects pedal. i think its a wah pedal the solo is below. 
this is really simple

 Solo: super easy. some variation of the 10 and the eleven fret lol
e|------------------------------------------|
B|--10/11-11-11-11-11-11-11-11-10/11-11-11--|
G|------------------------------------------|
D|------------------------------------------|
A|------------------------------------------|
E|------------------------------------------|


************************************

| /   slide up
| \   slide down
| h   hammer-on
| p   pull-off
| ~   vibrato
| +   harmonic
| x   Mute note
| b   Bend
| pb  Pre-bend
| br  Bend release
| pbr Pre-bend release
| brb Bend release bend

************************************
Tap to rate this tab
# A B C D E F G H I J K L M N O P Q R S T U V W X Y Z