Song name
# A B C D E F G H I J K L M N O P Q R S T U V W X Y Z

Misc Unsigned Bands - Nick And Nj - Just Friends tab

"Just Friends"
by Nick and NJ

Reference video: http://www.youtube.com/watch?v=vjECLpQIo1k

Capo 2nd fret (all tabs are in relation to capo)


Chorus & Verse:
e|---4---2---5---0---|
B|---5---2---5---0---|
G|---4---3---5---1---|
D|---6---2---5---2---|
A|---4---4---7---2---|
E|-------2---5---0---|

NOTE: Sometimes NJ plays the lower e and B strings open.

Pre-Chorus:
e|---2---4---2---0---|
B|---2---5---2---0---|
G|---2---4---2---1---|
D|---2---6---2---2---|
A|---4---4---4---2---|
E|---2-------2---0---|

Bridge:
e|---0--1--2----5----0--|
B|---0--1--2----5----0--|
G|---1--1--2----5----1--|
D|---2--1--2----5----2--|
A|---2--2--4----6----2--|
E|---0--1--2----5----0--|  repeats a few times

Not 100% accurate, but hope it sounds good enough for you :).
Tap to rate this tab
# A B C D E F G H I J K L M N O P Q R S T U V W X Y Z