Song name
# A B C D E F G H I J K L M N O P Q R S T U V W X Y Z

Misc Unsigned Bands - Demons From Angels - Divide And Conquer tab

	
Intro:

     (Bass Intro) 

     D|----------------------------------|
     A|----------------------------------|
     F|----------------------------------|
     C|----------------------------------|
     G|----------------------------------| x2
     C|-3---6---5---2---3---7--6-7-6-2---|

     D|----------------------------------|
     A|----------------------------------|
     F|----------------------------------|
     C|----------------------------------|
     G|-3---6---5---2---3---7--6-7-6-2---| x2 (Let the last D chord ring as
     C|-3---6---5---2---3---7--6-7-6-2---|     drums count in the main riff)
                               -PM--

Main Riff:

Part 1:

     D|---------------------------------------------------------|
     A|---------------------------------------------------------|
     F|---------------------------------------------------------|
     C|---------------------------------------------------------|
     G|-----44443333444466664444333311114444333311110000--------| x4
     C|-3-----------------------------------------------4~~~3~~~|

Part 2:

     D|---------------------------------|---------------------------------|
     A|---------------------------------|---------------------------------|
     F|---------------------------------|---------------------------------|
     C|---------------------------------|---------------------------------|
     G|-----3-------3-------3-----------|-----3-------3-------3---11111111|
     C|-33333---33333---33333---11111111|-33333---33333---33333-----------|

     D|---------------------------------|---------------------------------|
     A|---------------------------------|---------------------------------|
     F|---------------------------------|---------------------------------|
     C|---------------------------------|---------------------------------|
     G|---------------------------------|-----3-------3-------3-----------| x1
     C|-22222222222222221111111111111111|-33333---33333---33333---11111111|

Part 3:

     D|---------------------------------|---------------------------------|
     A|---------------------------------|---------------------------------|
     F|---------------------------------|---------------------------------|
     C|---------------------------------|---------------------------------|
     G|-----3-------3-------3-----------|-----3-------3-------3---11111111|
     C|-33333---33333---33333---11111111|-33333---33333---33333-----------|

     D|---------------------------------|---------------------------------|
     A|---------------------------------|---------------------------------|
     F|---------------------------------|---------------------------------|
     C|---------------------------------|---------------------------------|
     G|---------------------------------|-----3-------3-------3---1-1-1---| x1
     C|-22222222222222221111111111111111|-33333---33333---33333---1-1-1---|
                                                           -PM--


Scale Rise:

     D|-----------------|-----------------|-----------------|-----------------|
     A|-----------------|-----------------|-----------------|-----------------|
     F|-----------------|-----------------|-----------------|-----------------|
     C|-----------------|-----------------|-----------------|-----------------|
     G|-3---5---6-------|-5---6---8-------|-6---8---10--10--|-3---------------| x2
     C|-3---5---6-------|-5---6---8-------|-6---8---10--10--|-3---------------|

     (1st time - drum fill)
     (2nd time - drum counts in main riff)

Main Riff:

Part 1:

     D|---------------------------------------------------------|
     A|---------------------------------------------------------|
     F|---------------------------------------------------------|
     C|---------------------------------------------------------|
     G|-----44443333444466664444333311114444333311110000--------| x4
     C|-3-----------------------------------------------4~~~3~~~|

Part 2:

     D|---------------------------------|---------------------------------|
     A|---------------------------------|---------------------------------|
     F|---------------------------------|---------------------------------|
     C|---------------------------------|---------------------------------|
     G|-----3-------3-------3-----------|-----3-------3-------3---11111111|
     C|-33333---33333---33333---11111111|-33333---33333---33333-----------|

     D|---------------------------------|---------------------------------|
     A|---------------------------------|---------------------------------|
     F|---------------------------------|---------------------------------|
     C|---------------------------------|---------------------------------|
     G|---------------------------------|-----3-------3-------3-----------| x1
     C|-22222222222222221111111111111111|-33333---33333---33333---11111111|

Part 3:

     D|---------------------------------|---------------------------------|
     A|---------------------------------|---------------------------------|
     F|---------------------------------|---------------------------------|
     C|---------------------------------|---------------------------------|
     G|-----3-------3-------3-----------|-----3-------3-------3---11111111|
     C|-33333---33333---33333---11111111|-33333---33333---33333-----------|

     D|---------------------------------|---------------------------------|
     A|---------------------------------|---------------------------------|
     F|---------------------------------|---------------------------------|
     C|---------------------------------|---------------------------------|
     G|---------------------------------|-----3-------3-------3---1-1-1---| x1
     C|-22222222222222221111111111111111|-33333---33333---33333---1-1-1---|
                                                           -PM--


Scale Rise:

     D|-----------------|-----------------|-----------------|-----------------|
     A|-----------------|-----------------|-----------------|-----------------|
     F|-----------------|-----------------|-----------------|-----------------|
     C|-----------------|-----------------|-----------------|-----------------|
     G|-3---5---6-------|-5---6---8-------|-6---8---10--10--|-3---------------| x2
     C|-3---5---6-------|-5---6---8-------|-6---8---10--10--|-3---------------|

     (1st time - drum fill)
     (2nd time - drum beats in bridge 1)


Bridge 1a:

     D|--------------------|--------------------|--------------------|--------------------|    
     A|--------------------|--------------------|--------------------|--------------------|
     F|--------------------|--------------------|--------------------|--------------------|
     C|--------------------|--------------------|--------------------|--------------------|
     G|-3-5-3-3------------|-3-5-3-2------------|-3-5-3-3------------|-3-5-3-6--------5---| x1
     C|-3-5-3-3------------|-3-5-3-2------------|-3-5-3-3------------|-3-5-3-6--------5---|

Bridge 1b:

     D|--------------------|--------------------|--------------------|--------------------|    
     A|--------------------|--------------------|--------------------|--------------------|
     F|--------------------|--------------------|--------------------|--------------------|
     C|--------------------|--------------------|--------------------|--------------------|
     G|-3-5-3-3--3333333333|-3-5-3-2--2222222222|-3-5-3-3--3333333333|-3-5-3-6--666666555-| x1
     C|-3-5-3-3--3333333333|-3-5-3-2--2222222222|-3-5-3-3--3333333333|-3-5-3-6--666666555-|
                 ----PM----           ----PM----           ----PM----           ----PM---  
Bridge 1c:

     D|--------------------|--------------------|--------------------|--------------------|    
     A|--------------------|--------------------|--------------------|--------------------|
     F|--------------------|--------------------|--------------------|--------------------|
     C|--------------------|--------------------|--------------------|--------------------|
     G|-3-5-3-3------------|-3-5-3-2------------|-3-5-3-3------------|-3-5-3-6------------| x2
     C|-3-5-3-3--3333333333|-3-5-3-2--2222222222|-3-5-3-3--3333333333|-3-5-3-6--6666665555|
                 --Horse---           --Horse---           --Horse---           --Horse---   

     (2nd time - insanely fast, short solo)

Bridge 2:

     D|-------------------|-------------------|-------------------|-------------------|  
     A|-------------------|-------------------|-------------------|-------------------|
     F|-------------------|-------------------|-------------------|-------------------|
     C|-------------------|-------------------|-------------------|-------------------|
     G|-3-----4-----3--6--|-3-----4-----3--6--|-2-----3-----2--5--|-2-----3-----2--5--| x2
     C|-3-----4-----3--6--|-3-----4-----3--6--|-2-----3-----2--5--|-2-----3-----2--5--|

Then:

     D|----------|
     A|----------|
     F|----------|
     C|----------|
     G|-2--------| (Hold note while drums count in main riff)
     C|-2--------|


Main Riff:

Part 1:

     D|---------------------------------------------------------|
     A|---------------------------------------------------------|
     F|---------------------------------------------------------|
     C|---------------------------------------------------------|
     G|-----44443333444466664444333311114444333311110000--------| x4
     C|-3-----------------------------------------------4~~~3~~~|

Part 2 (outro):

     D|---------------------------------|---------------------------------|
     A|---------------------------------|---------------------------------|
     F|---------------------------------|---------------------------------|
     C|---------------------------------|---------------------------------|
     G|-----3-------3-------3---1-1-1---|-----3-------3-------3---1-1-1---|
     C|-33333---33333---33333---1-1-1---|-33333---33333---33333---1-1-1---|
                                -PM--                             -PM--    

     D|---------------------------------|----------------|----------------|
     A|---------------------------------|----------------|----------------|
     F|---------------------------------|----------------|----------------|
     C|---------------------------------|----------------|----------------|
     G|-----3-------3-------3---1-1-1---|-3~~~~~~~~~~~~~~|------(End)-----| x1
     C|-33333---33333---33333---1-1-1---|-3~~~~~~~~~~~~~~|----------------|
Tap to rate this tab
 
# A B C D E F G H I J K L M N O P Q R S T U V W X Y Z