Song name
# A B C D E F G H I J K L M N O P Q R S T U V W X Y Z

Misc Unsigned Bands - Brian Dubois - Tranquil tab

e|----------------------------|           |
B|----------------------------|            |
G|----------------------------|             |
D|---------------------9------|         x4   |
A|-------10-------------------|               |
E|12------------12------------|                |
                                                |
e|----------------------------|                  |
B|----------------------------|                   |
G|----------------------------|                    |
D|---------------------10-----|         x4         |    x3 
A|-------10-------------------|                   |
E|12------------12------------|                  |
                                                |
e|----------------------------|                |
B|----------------------------|               |
G|----------------------------|              |
D|---------------------11-----|         x4  |
A|-------10-------------------|            |
E|12------------12------------|           |
Tap to rate this tab
 
# A B C D E F G H I J K L M N O P Q R S T U V W X Y Z